Игорь Тальков - Памяти Виктора Цоя, аккорды

Прокрутка
Тональность
Шрифт
100
Intro:
  Am   G    F   Em    Dm Em   Am
e---5-8-7-3--5-8-7-3------5-3-3-5-----
b-5---------5----------5-6----------5-
g-------------------------------------
d-------------------------------------
a-------------------------------------
e-------------------------------------
 
   Am          E/G# Am/G    Am/F#
Поэты не рождаются случайно,
   Dm          A7/C# Dm  Dm/C
Они летят на землю с высоты,
      Bm7-5     E7      Am
Их жизнь окружена глубокой тайной,
     Dm7          E7 Am
Хотя они открыты и просты.

     Am          E/G#    Am/G Am/F#
Глаза таких божественных посланцев
       Dm         A7/C# Dm Dm/C
Всегда печальны и верны мечте,
      Bm7-5    E7            Am Fmaj7
И в хаосе проблем их души вечно светят тем
     Dm7           E7  Am
Мирам, что заблудились в темноте.

  Am   G    F   Em    Dm Em   Am
e---5-8-7-3--5-8-7-3------5-3-3-5-----
b-5---------5----------5-6----------5-
g-------------------------------------
d-------------------------------------
a-------------------------------------
e-------------------------------------

Am          E/G#     Am/G Am/F#
Они уходят, выполнив заданье,
    Dm          A7 Dm
Их отзывают Высшие Миры,
    Bm7-5         Am
Неведомые нашему сознанью,
       Dm7          E7
По правилам космической игры.

    Am              G
Они уходят, не допев куплета,
     Cmaj7          A9
Когда в их честь играет туш:
     Dm             Bm7-5
Актеры, музыканты и поэты -
     E7             Am
Целители уставших наших душ.

  Am   G    F   Em    Dm Em   Am
e---5-8-7-3--5-8-7-3------5-3-3-5-----
b-5---------5----------5-6----------5-
g-------------------------------------
d-------------------------------------
a-------------------------------------
e-------------------------------------

    Am                E7/G# Am/G Am/F#
В лесах их песни птицы допевают,
       Dm              A7/C# Dm Dm/C
В полях для них цветы венки совьют,
   Bm7-5     E7            Am Fmaj7
Они уходят вдаль, но никогда не умирают
      Dm7           E7  Am F7
И в песнях и в стихах своих живут.

    Bm             F7/A Bbm/Ab Bm/G
А может быть сегодня или завтра
     Ebm     Bb7/D     Ebm
Уйду и я таинственным гонцом
 Ebm/Db Cm7-5     F7           Bbm   Bbm/Ab   Bbm/Gb
 Ту-------да, куда ушел, ушел от нас вне---------запно
N/С
Поэт и композитор Виктор Цой.

Outro:
  Bbm   G#   F#  Fm   Ebm Fm   Bbm
e---6-9-8-4--6-9-8-4------6-4-4-6-----
b-6---------6----------6-7----------6-
g-------------------------------------
d-------------------------------------
a-------------------------------------
e-------------------------------------
 
 
Свернуть Распечатать

Видео