Игорь Тальков - Чистые пруды, аккорды

Прокрутка
Тональность
Шрифт
100
Проигрыш:
E|-1-0-1---------0--1-0-1--------0--1-0-0----------------|
B|-----------3----------------3-----------3-3--2-2-------|
G|-------2--2-------------3--3-----------------------3-3-|
D|-------------------------------------------------------|
A|-------------------------------------------------------|
E|-------------------------------------------------------|
 
E|------------5--5-6-8--10-8-6-5-6----3--0--8-6------6-5-|
B|---------------------------------3-----------2---------|
G|-2-3-5-3-2--------------------------------------2------|
D|-------------------------------------------------------|
A|-------------------------------------------------------|
E|-------------------------------------------------------|

E|----3-1---0-1---|
B|-3-----2------3-|
G|----------------|
D|----------------|
A|----------------|
E|----------------|

Dm             A7
У каждого из нас на свете есть места
A7           Dm
Куда приходим мы на миг уединиться
Gm              Dm
Где память как строка почтового листа
Gm               Dm     A7
Нам сердце исцелит, когда оно томится

Припев:
  Dm          Gm
  Чистые пруды, застенчивые ивы
  C7             F   A7
  Как девчонки смолкли у воды
  Dm               Gm
  Чистые пруды, веков зеленый сон
  A7                            Dm
  Мой дальний берег детства, где звучит аккордеон...

Проигрыш:
E|-1-0-1---------0--1-0-1--------0--1-0-0----------------|
B|-----------3----------------3-----------3-3--2-2-------|
G|-------2--2-------------3--3-----------------------3-3-|
D|-------------------------------------------------------|
A|-------------------------------------------------------|
E|-------------------------------------------------------|
 
E|------------5--5-6-8--10-8-6-5-6----3--0--8-6------6-5-|
B|---------------------------------3-----------2---------|
G|-2-3-5-3-2--------------------------------------2------|
D|-------------------------------------------------------|
A|-------------------------------------------------------|
E|-------------------------------------------------------|

E|----3-1---0-1---|
B|-3-----2------3-|
G|----------------|
D|----------------|
A|----------------|
E|----------------|

Dm             A7
И я спешу туда, там льется добрый свет
A7           Dm
И лодки на воде, как солнечные пятна
Gm               Dm     
Отсюда мы с тобой ушли в круженье лет
Gm               Dm     A7
И вот я снова здесь, и ты придешь обратно

Припев:
  Dm          Gm
  Чистые пруды, застенчивые ивы
  C7             F   A7
  Как девчонки смолкли у воды
  Dm               Gm
  Чистые пруды, веков зеленый сон
  A7                            Dm
  Мой дальний берег детства, где звучит аккордеон...

Dm             A7
Однажды ты пройдешь Бульварное кольцо
A7           Dm
И в памяти твоей мы встретимся наверно
Gm               Dm     
И воды отразят знакомое лицо
Gm               Dm     A7
И душу исцелят и успокоят нервы

Припев:
  Dm          Gm
  Чистые пруды, застенчивые ивы
  C7             F   A7
  Как девчонки смолкли у воды
  Dm               Gm
  Чистые пруды, веков зеленый сон
  A7                            Dm
  Мой дальний берег детства, где звучит аккордеон...

Dm             A7
У каждого из нас на свете есть места
A7           Dm
Что нам за далью лет все ближе, все дороже
Gm               Dm     
Там дышится легко, там мира чистота
Gm               Dm     A7
Нас сделают на миг счастливей и моложе.
 
 
Свернуть Распечатать

Видео