Игорь Тальков - Россия, аккорды

Прокрутка
Тональность
Шрифт
100
 Gm D/F#    G/F   Cm/Eb Am7-5 Gm/D     A7/C#       D7 
E |-------------------------------------------------------------| 
B |-------------------------------------------------------------| 
G |-7-8-7--------7-8-7-5--------5-7-5-3----------3-2------2-----| 
D |--------7---------------------------------------------5-5--4-| 
 
    Gm D/F# G/F   Cm/Eb Am7-5 Gm/D C#dim    D7sus  D7    Gm 
E |-------------------------------------------------------------| 
B |-------------------------------------------------------------| 
G |-7-8-7-----7-8-7-5--------5-7-5-3------3-2-------------------| 
D |--------7-----------------------------------5--5----4------5-| 
 
Gm                   Gm/B 
Листая старую тетрадь 
Am7-5                 Gm 
Расстрелянного генерала, 
Eb                     B 
Я тщетно силился понять, 
                     Cm7 Gm/B 
Как ты могла себя отдать 
                  D7/A Gm 
На растерзание вандалам. 
B                       Ebmaj7 
Из мрачной глубины веков 
C7                      Cm Cm/B 
Ты поднималась исполином, 
Am7-5                     Gm/B 
Твой Петербург мирил врагов 
                 Ab/C   Gm/B 
Высокой доблестью полков 
                    D7/A Gm 
В век золотой Екатерины. 
D7    Gm   C#dim Dsus D7 
Россия... 
D7    Gm   C#dim Dsus D7 
Россия... 
 
    Gm D/F#   G/F   Cm/Eb Am7-5 Gm/D     A7/C#       D7 
E |-------------------------------------------------------------| 
B |-------------------------------------------------------------| 
G |-7-8-7-------7-8-7-5--------5-7-5-3----------3-2------2------| 
D |--------7--------------------------------------------5-5---4-| 
 
    Gm D/F#  G/F   Cm/Eb Am7-5 Gm/D C#dim     D7sus  D7  Gm 
E |-------------------------------------------------------------| 
B |-------------------------------------------------------------| 
G |-7-8-7------7-8-7-5--------5-7-5-3------3-2------------------| 
D |--------7-------------------------------------5--5----4----5-| 
 
Gm                      Gm/B 
Священной музыкой времен 
Am7-5                 Gm 
Над златоглавою Москвою 
Eb                       B 
Струился колокольный звон, 
                 Cm7   Gm/B 
Но даже самый тихий, он 
                D7/A   Gm 
Кому-то не давал покоя. 
B               Ebmaj7 
А золотые купола 
G7                          Cm Cm/B 
Кому-то черный глаз слепили: 
Am7-5                Gm/B 
Ты раздражала силы зла 
                  Ab/C 
И, видно, так их доняла, 
Gm/B              D7/A   Gm 
Что ослепить тебя решили. 
 
D7    Gm   C#dim Dsus D7 
Россия... 
D7    Gm   C#dim Dsus D7 
Россия... 
 
Gm                          Gm/B 
Разверзлись с треском небеса, 
Am7-5                    Gm 
И с визгом ринулись оттуда 
Eb                    B 
Срубая головы  церквям 
                Cm  Gm/D 
И славя нового царя, 
               D7 Gm 
Новоявленные иуды. 
B7                  Ebmaj7 
Тебя связали кумачом 
G7                  Cm Cm/B 
И опустили на колени, 
Am7-5                     Gm/B 
Сверкнул топор над палачом, 
               Cm6    Gm/D 
А приговор тебе прочел 
                     D7      Gm 
Кровавый царь-великий...гений. 
 
D7    Gm   Eb9 Cm6 Dsus D7 
Россия... 
D7    Gm   Eb9 Cm6 Dsus D7 
Россия... 
 
Gm                   Gm/B 
Листая старую тетрадь 
Am7-5                  Gm 
Расстрелянного генерала, 
Eb                     B 
Я тщетно силился понять, 
                    Cm7 Gm/B 
Как ты могла себя отдать 
                 D7/A  Gm 
На растерзание вандалам. 
B                      Ebmaj7 
О, генеральская тетрадь, 
G7                         Cm  Cm/B 
Забитой правды возрожденье, 
Am7-5                Gm/B 
Как тяжело тебя читать 
Обманутому поколенью. 
Россия!!! 
 
    Gm D/F#    G/F   Cm/Eb Am7-5 Gm/D     A7/C#       D7 
E |-------------------------------------------------------------| 
B |-------------------------------------------------------------| 
G |-7-8-7--------7-8-7-5--------5-7-5-3----------3-2------2-----| 
D |--------7---------------------------------------------5-5--4-| 
 
    Gm D/F#  G/F   Cm/Eb Am7-5 Gm/D  C#dim     D7sus  D7  Gm 
E |-------------------------------------------------------------| 
B |-------------------------------------------------------------| 
G |-7-8-7------7-8-7-5--------5-7-5-3-------3-2-----------------| 
D |--------7--------------------------------------5--5----4---5-|
 
 
Свернуть Распечатать

Видео