Игорь Тальков - Чистые пруды, аккорды

Прокрутка
Тональность
Шрифт
100
  Dm
E||----------|----------|---10--12--13--10-----|--17-|
B||----------|----------|----------------------|-----|
G||----------|----------|----------------------|-----|
D||----------|----------|----------------------|-----|
A||----------|----------|----------------------|-----|
E||----------|----------|----------------------|-----|

 Gm C7
E|------------------|--18--------|----------------------|--15-|
B|----------15------|------------|----------15--17------|-----|
G|-15--17------15---|------------|------17----------17--|-----|
D|------------------|------------|----------------------|-----|
A|------------------|------------|----------------------|-----|
E|------------------|------------|----------------------|-----|

 F+7 Bb+7
E|---12--13--15--17----|---------|-----------------------|--13-|
B|---------------------|---------|----------13--15-------|-----|
G|---------------------|-----14--|------15----------15---|-----|
D|---------------------|---------|-----------------------|-----|
A|---------------------|---------|-----------------------|-----|
E|---------------------|---------|-----------------------|-----|

 Gm A7 Dm
E|-------------------15--|--------12---|--17--------|----------|
B|--------13-15----------|-------------|------------|--15------|
G|---------------15------|-------------|------------|----------|
D|-----15----------------|-------------|------------|----------|
A|-----------------------|-------------|------------|----------|
E|-----------------------|-------------|------------|----------|

Dm                       A
У каждого из нас на свете есть места,
A                        Dm
Куда приходим мы на миг отъединится,
Gm                        Dm
Где память, как строка почтового листа,
Gm                      Dm A
Нам сердце исцелит, когда оно томиться.

Dm                  Gm
Чистые пруды застенчивые ивы,
  C                F E A7
Как девчонки смолкли у воды,
Dm                    Gm
Чистые пруды, веков зеленый сон,
  A7
Мой дальний берег детства,

Где звучит аккордеон.

 Dm Gm7
E|-----10-11-|--13--12-13-----|-------------12-|--13--12-13----|
B|--------12-|----------------|----------15----|------------11-|
G|-----------|-------------14-|-------14-------|---------------|
D|-----------|----------------|----------------|---------------|
A|-----------|----------------|----------------|---------------|
E|-----------|----------------|----------------|---------------|

 C7 F+7
E|----10-12-|-13-12-12-10-10-8-8-6-|-6---6-8-6-5-6-8-|--6-5-17-|
B|-11-------|----------------------|-----------------|---------|
G|----------|----------------------|-----------------|---------|
D|----------|----------------------|-----------------|---------|
A|----------|----------------------|-----------------|---------|
E|----------|----------------------|-----------------|---------|

 Bb+7 Gm
E|-5-6-8--10-|-8-6-5-6----|--------------|-------8--6-|
B|-----------|------------|--8-------7-6-|--5---------|
G|-----------|----------7-|--------------|------------|
D|-----------|------------|--------------|------------|
A|-----------|------------|--------------|------------|
E|-----------|------------|--------------|------------|

 A7 Dm
E|----------|-6-5-----------|---------|
B|----------|--------8--6---|-5-6-----|
G|-6--------|---------------|-------7-|
D|--------7-|-----7-------7-|---------|
A|----------|---------------|---------|
E|----------|---------------|---------|

Dm                       A
И я спешу туда, там льется добрый свет,
                        Dm
И лодки на воде как солнечные пятна,
Gm                        Dm
Отсюда мы с тобой ушли в круженье лет,
Gm                       Dm  A
И вот я снова здесь, и ты придешь обратно!

E|------------|
B|-------5--6-|
G|----6-------|
D|-7----------|
A|------------|
E|------------|

Dm                  Gm
Чистые пруды застенчивые ивы,
C7                  F E A7
Как девчонки смолкли у воды,
Dm                    Gm
Чистые пруды, веков зеленый сон,
  A7
Мой дальний берег детства,
              Dm
Где звучит аккордеон.

 Bb
E|-----------1-2-4-|
B|----1-3-4--------|
G|-3---------------|
D|-----------------|
A|-----------------|
E|-----------------|

D#m                       A#
Однажды ты пройдешь бульварное кольцо,
                           D#m
И в памяти твоей мы встретимся, наверно,
G#m                  D#m
И воды отразят знакомое лицо,
G#m                  D#m A#
И сердце исцелят и успокоят нервы.

E|------------|
B|-------6--7-|
G|----7-------|
D|-8----------|
A|------------|
E|------------|

D#m                 G#m
Чистые пруды застенчивые ивы,
C#7                F# F A#7
Как девчонки смолкли у воды,
D#m                   G#m
Чистые пруды, веков зеленый сон,
A#7
Мой дальний берег детства,
A#7
Где звучит аккордеон.

 D#m
E|-11-12--|--14--13-14-----|
B|-----13-|----------------|
G|--------|-------------15-|
D|--------|----------------|
A|--------|----------------|
E|--------|----------------|

 G#m7 C#7
E|-------13-|-14--13-14----|-----11-13-|-14-13-13-11-11-9-9-7-|
B|----16----|-----------12-|-12--------|----------------------|
G|-15-------|--------------|-----------|----------------------|
D|----------|--------------|-----------|----------------------|
A|----------|--------------|-----------|----------------------|
E|----------|--------------|-----------|----------------------|

 F#+7 B+7
E|-7--7-9-7-6-7-9-|-7-6-18-|----------|-6-7-9--11-|-9-7-6-7----|
B|----------------|--------|----------|-----------|------------|
G|----------------|--------|----------|-----------|----------8-|
D|----------------|--------|----------|-----------|------------|
A|----------------|--------|----------|-----------|------------|
E|----------------|--------|----------|-----------|------------|

 G#m ( B ) ( Bb )
E|------------|------9--7-|----------|-7-6-----------|------|
B|-9------8-7-|-6---------|----------|--------9--7---|------|
G|------------|-----------|-7--------|---------------|------|
D|------------|-----------|--------8-|------8------8-|----7-|
A|------------|-----------|----------|---------------|------|
E|------------|-----------|----------|---------------|------|

E|-6-5---------|
B|-------8-6---|
G|-------------|
D|-----7-----7-|
A|-------------|
E|-------------|

Dm                      A
У каждого из нас на свете есть места,
                            Dm
Что нам за далью лет все ближе, все дороже,
Gm                      Dm
Там дышится легко, там мира чистота,
Gm                        Dm A
Нас делает на миг счастливее и моложе.

Dm                  Gm
Чистые пруды застенчивые ивы,
C7                  F E A7
Как девчонки смолкли у воды,
Dm                    Gm
Чистые пруды, веков зеленый сон,
   A
Мой дальний берег детства,
              Dm
Где звучит аккордеон.

 Dm Gm7
E|-----10-11-|--13--12-13-----|-----------12-|--13--12-13----|
B|--------12-|----------------|--------15----|------------11-|
G|-----------|-------------14-|-----14-------|---------------|
D|-----------|----------------|--------------|---------------|
A|-----------|----------------|--------------|---------------|
E|-----------|----------------|--------------|---------------|

 C7 F+7
E|----10-12-|-13-12-12-10-10-8-8-6-|-6----6-8-6-5-6-8-|-6-5-17-|
B|-11-------|----------------------|------------------|--------|
G|----------|----------------------|------------------|--------|
D|----------|----------------------|------------------|--------|
A|----------|----------------------|------------------|--------|
E|----------|----------------------|------------------|--------|

 Bb+7 Gm
E|-5-6-8--10-|-8-6-5-6----|-------------|------8--6-|
B|-----------|------------|-8-------7-6-|-5---------|
G|-----------|----------7-|-------------|-----------|
D|-----------|------------|-------------|-----------|
A|-----------|------------|-------------|-----------|
E|-----------|------------|-------------|-----------|

 A7 Dm
E|------------|--6-5------------|--------|
B|------------|---------8--6----|--5-6---|
G|--6---------|-----------------|------7-|
D|---------7--|-------7------7--|--------|
A|------------|-----------------|--------|
E|------------|-----------------|--------|
 
 
Свернуть Распечатать

Видео