Imagine Dragons - Beliver, аккорды

Прокрутка
Тональность
Шрифт
100
Tab:

E|------------------
B|---------------–--
G|---------------–--
D|--6-6-6-6-6-6-6-6-
A|-8-8-8-8-8-8-8-8--
E|---------------–--

E|------------------
B|---------------–--
G|---------------–--
D|--6-6-6-6-5-5-5-5-
A|-4-4-4-4-7-7-7-7--
E|---------------–--

Комментарий автора:

Для удобства можно поставить капо на 4
 
 
Свернуть Распечатать

Видео