Иван Панфилов - Бессмысленны слова, аккорды

Прокрутка
Тональность
Шрифт
100
Am         Dm                   G    
Я лежу на хирургическом столе пластом
             C                       F
Два раненья огнестрельных в теле молодом
            B                      E
Голова прострелена контрольным выстрелом уже светает

Am         Dm                  G    
Опознали родственники, близкие друзья
             C                       F
труп остывший с номерком на пальце это я
            B                 E
и жена в истерике-беременна она, вот так бывает.

Проигрыш: x2
-3-3-3--2-2-2--1-1-1--0-0-0--3-3
-1-1-1--1-1-1--1-1-1--1-1-1--0-0
-2-2-2--2-2-2--2-2-2--2-2-2--0-0   
-2-2-2--2-2-2--2-2-2--2-2-2--0-0
-0-0-0--0-0-0--0-0-0--0-0-0--2-2
-0-0-0--0-0-0--0-0-0--0-0-0--3-3

Am         Dm                   G    
2.А все начиналось так красиво и легко
             C                       F
дембельнулся с армии совсем не так давно
            B                    E
не образованья не работы ничего лишь цель подняться

Am         Dm                 G    
Подтянули старые приятели к себе 
             C                       F
и мутил под крышей много криминальных тем
            B                      E
но в один обычный день случился беспредел

Припев:
               Am           Dm            
Бесмысленны слова мне не нужны
               G           C
бесмысленной была такая жизнь      
                 F              B 
оставив только боль в горьких слезах     
            E
и вечную любовь в сердцах
               Am           Dm            
Бесмысленны слова мне не нужны
               G           C
бесмысленной была такая жизнь      
                 F              B 
оставив только боль в горьких слезах     
            E
и вечную любовь в сердцах

Am         Dm                   G    
3.А теперь по кладбищу несут гроб на руках
             C                       F
девушки рыдая раскраснелись все  в слезах
            B                      E
и оркестр знает свое дело на жмурах подпив играет

Am         Dm                   G    
Опустив в могилу гроб засыпали землей 
             C                       F
памятник из мрамора воздвигнули братвой
            B                  E
эпитафия о скорби золотой строкой.

Комментарий автора:

Табы на припев:
Бесмысленны слова         мне не нужны  
----------------------------------------------
----------------------------------------------
----------------------------------------------
----------------------------------------------
--------------------------------------5-7-8--5
-----------------5-7-8--5---------------------

Бесмысленной была        такая жизнь
--------------------------------------------
--------------------------------------------
--------------------------------------------
--------------------------------------------
------------------------------------3-5-7--3          
-----------------3-5-7--3-------------------

Оставив только боль        В горьких слезах
---------------------------------------------------
---------------------------------------------------
---------------------------------------------------
---------------------------------------------------
-------------------------------------------1-3-5--1
-------------------1-3-5--1------------------------

И вечную любовь в сердцах
---------0------
---------0------
---------1------
---------2------
---------2------
---------0------
 
 

Видео