James Blunt - You're Beautiful, аккорды

Прокрутка
Тональность
Шрифт
100
    G/F#   G    Em7  Cadd9  D/F#
e|---3-----3-----3-----3-----3---|
B|---3-----3-----3-----3-----3---|
G|---0-----0-----0-----0-----2---|
D|---0-----0-----2-----2-----0---|
A|---0-----2-----2-----3-----0---|
E|---2-----3-----0-----0-----2---|

 
[Intro]

    G         G/F#         Em7         Cadd9
e|--------------------------------------------------|
B|--------------------------------------------------|
G|--------------------------------------------------|
D|------13-12-13--------13-12-13-15-13-12-13--------|
A|--10-------------10-------------------------10-11-|
E|--------------------------------------------------|

 
e|------------------------------------------------------------------------|
B|------------------------------------------------------------------------|
G|------------------------------------------------------------------------|
D|------13-12-13--[my life is brilliant]------13-12-13-15-13-12-13--------|
A|--10----------------------------------10-------------------------10-11--|
E|------------------------------------------------------------------------|



[Verse 1]

G
My life is brilliant.
G/F#
My love is pure.
Em7
I saw an angel.
Cadd9
Of that I'm sure.
    G
She smiled at me on the subway.
        G/F#
She was with another man.
    Em7
But I won't lose no sleep on that,
       Cadd9      D/F#
'Cause I've got a plan.

 
[Chorus]

Cadd9        D/F# Em7          D/F#
You're beautiful. You're beautiful.
Cadd9        D/F#      G
You're beautiful, it's true.
  Cadd9    D/F#      G   D/F# Em7
I saw your face in a crowded  place,
      Cadd9      D/F#    Em7
And I don't know what to do.
            Cadd9 D/F#    G     G/F#    Em7     Cadd9
'Cause I'll never be with you.

 
e|--------------------------------------------------|
B|--------------------------------------------------|
G|--------------------------------------------------|
D|------13-12-13--------13-12-13-15-13-12-13--------|
A|--10-------------10-------------------------10-11-|
E|--------------------------------------------------|


[Verse 2]

          G
Yeah, she caught my eye, 
      G/F#
As we walked on by.
          Em7
She could see from my face that I was, 
Cadd9
  Fucking high, 
    G                       G/F#
And I don't think that I'll see her again, 
    Em7                          Cadd9
But we shared a moment that will last till the end. 

 
[Chorus]

Cadd9        D/F# Em7          D/F#
You're beautiful. You're beautiful.
Cadd9        D/F#      G
You're beautiful, it's true.
  Cadd9    D/F#      G   D/F# Em7
I saw your face in a crowded  place,
      Cadd9      D/F#    Em7
And I don't know what to do.
            Cadd9 D/F#    G
'Cause I'll never be with you.

 
Cadd9        Em7          Cadd9          D/F#  Cadd9  D/F#
  La la la la, la la la la, la la la la, la

 
[Outro]

Cadd9        D/F# Em7          D/F#
You're beautiful. You're beautiful.
Cadd9        D/F#      G
You're beautiful, it's true.
      Cadd9      D/F#         G        D/F# Em7
There must be an angel with a smile on her  face,
         Cadd9                    D/F#          G D/F# Em7
When she thought up that I should be with you.
         Cadd9   D/F#     Em7
But it's time to face the truth,
       Cadd9 D/F#     G
I will never be with you.
 
 
Свернуть Распечатать

Видео