J.J. Cale - Lies, аккорды

Прокрутка
Тональность
Шрифт
100
Intro:  Cm    F    Cm    G    F    Cm  
 
 Cm                  F  
You told me this, you told me that  
 Cm                    F  
You try to tell me, tell me where it’s at  
 Cm                       F  
You said you loved me, I can see through that  
 C        Eb    F  
Lies, lies, lies 
 
Nice lick 00:51 
|-----------------8--------8-8~------8----8~-----8-----------8------------------| 
|---10----------8---8-8-11--------11---10---8-11---8-11b13-----8—10-8-----------| 
|---10---10b12---------------------------------------------------------10-------| 
|---10--------------------------------------------------------------------------| 
|----8--------------------------------------------------------------------------| 
|-------------------------------------------------------------------------------| 
 
You left me hangin’, hangin’ from a limb 
You said you loved me, then you left with him 
Lord, you did it to me, I see it in your eyes 
Lies, lies, lies 
 
Solo 1  01:26 
|-----------------------------------------8---------8----10b13------------------| 
|-------------------------8-------------8----11b13----8-------------------------| 
|---------8b9-10-8—10b12---------10b12------------------------------------------| 
|---10-10-----------------------------------------------------------------------| 
|-------------------------------------------------------------------------------| 
|-------------------------------------------------------------------------------| 
 
|-----------8------------------------------------------------8-----------8------| 
|---------8-------------------------------8----------------8---8---10b13---8----| 
|---10b12------10-8----8—10-8—-----10b12------10-8—--10b12----------------------| 
|-------------------10----------------------------------------------------------| 
|-------------------------------------------------------------------------------| 
|-------------------------------------------------------------------------------| 
 
|-------------------------8------------------------8--------11-13-11------------| 
|---11-8------------------8-----8----10----------8----10b13-----------13~~~-----| 
|---------10-8------------9-----8----10----10b12--------------------------------| 
|---------------10-8-----10-----8----10-----------------------------------------| 
|-------------------------------6-----8-----------------------------------------| 
|-------------------------------------------------------------------------------| 
 
Tell me baby, why you take my time 
You get a thrill off playing with my mind 
Lord, you did it to me, I see it in your eyes 
Lies, lies, lies 
 
Solo 2  02:10      Cm  
|--------------------------8----------8----------------------------8------------| 
|---10~~-----------------8---8-11b13-----11-----11h13p11---------8--------------| 
|---10~~----------10b12---------------------12-------------10b12----------------| 
|---10~~------------------------------------------------------------------------| 
|----8~~------------------------------------------------------------------------| 
|-------------------------------------------------------------------------------| 
 
|-------------------------------------------------------------------------------| 
|--------------------------8-------------8-------------------------------8------| 
|--------8^--10-8---10b12-----10-8—10b12----8^----------8^9---10-8—10b12---10b12| 
|---10-10---------------------------------------10---10-------------------------| 
|-------------------------------------------------------------------------------| 
|-------------------------------------------------------------------------------| 
                                                                                                                                   
                     C     Eb    F   ending blues lick 
|---8---11^12---8---8---8---8----8---11b13--13---13--13----13-------14-------13-| 
|-8---------------8-------8--------------------13-------13-13--13------13p11----| 
|-------------------------------------------------------------------------------| 
|-------------------------------------------------------------------------------| 
|-------------------------------------------------------------------------------| 
|-------------------------------------------------------------------
 
 

Видео