J:Морс - Не умирай, аккорды

Прокрутка
Тональность
Шрифт
100
Intro (phono):
e|-10---10---9---9---    -10---10---9---9---|
b|----7----7---7---7- x2 ----8----8---8---8-| x2
G|-------------------    -------------------|
D|-------------------    -------------------|
B|-------------------    -------------------|
E|-------------------    -------------------|

B5 E5

Куплет:
B5
Я теряю больше, продолжая жить         
C#dim F#5                              
Там, где не встречу тебя.              
B5
Мир на "до" и "после" проще разделить, 
C#dim F#5   
Если не больно терять.                 
A5                                     
Лишь мои просветы                       
D5 G5 F#5
И где-то твоя белизна.

Припев:
E5
Не умирай,
A5
Это как будто
B5
Пасмурный рай, сонное утро.
E5 A5 B5
Искорки слёз, черепки перламутра тают.

Куплет:
B5
Запахи и звуки, всё как в первый раз
C#dim F#5   
Под нераскрытым зонтом.
B5
Те, кому не легче позабудут нас
C#dim F#5   
Если не сейчас, то потом.
A5
Алые просветы
D5 G5 F#5
И где-то твоя белизна.

Припев:
E5
Не умирай,
A5
Это как будто
B5
Пасмурный рай, сонное утро.
E5 A5 B5
Капли росы, лепестки перламутра
E5 A5 B5
Медленно вниз, голос негромко,
B5
Тающий пульс из-под обломков.
E5 A5
Знаешь, мечта рвётся где тонко,
G5
Так всегда.

Solo:
e|-10----------10--    -9----------10--10----------10----------|
b|----12----12-----    ---12----12--------12----12----13b14~~~-|
G|-------11-------- x4 ------12--------------11----------------|
D|-----------------    ----------------------------------------|
B|-----------------    ----------------------------------------|
E|-----------------    ----------------------------------------|

(G5 A5 B5) E5 G5 F#5

Припев:
E5
Не умирай,
A5
Это как будто
B5
Пасмурный рай, сонное утро.
E5 A5 B5
Искорки слёз, черепки перламутра...
E5 A5 B5
Медленно вниз, голос негромко,
B5
Тающий пульс из-под обломков.
E5 A5
Знаешь, мечта рвётся где тонко...

Комментарий автора:

e|-x-|
b|-x-|
G|-x-|
D|-5-|
B|-4-|
E|-x-|
C#dim 
 
 

Видео