Jota Quest - O Sol, аккорды

Прокрутка
Тональность
Шрифт
100
Intro: 
 2x: 
E|------------------------| 
B|------------------------| 
G|-----------------9-11-9-| 
D|-----7-9-7--9-11--------| 
A|-7-9--------------------| 
E|------------------------| 
 
E|------------------------| 
B|------------------------| 
G|------------------------| 
D|--9-11-12--12-11-9-7----| 
A|---------------------9--| 
E|------------------------|

 A  E  G  D }x2
 
 A
 Ei, dor 
              E
 Eu não te escuto mais 
    G                  D
 Você não me leva a nada 
 A
 Ei, medo 
              E
 Eu não te escuto mais 
    G                  D
 Você não me leva a nada 
 
 A
 Е se quiser saber 
     E
 Pra onde eu vou 
     D
 Pra onde tenha Sol 
 A
 É pra lá que eu vou 
 A
 Е se quiser saber 
     E
 Pra onde eu vou 
     D
 Pra onde tenha Sol 
 A
 É pra lá que eu vou 
 
 A  E  G  D  
 
 A
 Ei, dor 
              E
 Eu não te escuto mais 
    G                  D
 Você não me leva a nada 
 A
 Ei, medo 
              E
 Eu não te escuto mais 
    G                  D
 Você não me leva a nada 
 
 A
 Е se quiser saber 
     E
 Pra onde eu vou 
     D
 Pra onde tenha Sol 
 A
 É pra lá que eu vou 
 
 A
 Е se quiser saber 
     E
 Pra onde eu vou 
     D
 Pra onde tenha Sol 
 A
 É pra lá que eu vou 
 
 A7sus4  A }x4
 
 A
 Е se quiser saber 
     E
 Pra onde eu vou 
     D
 Pra onde tenha Sol 
 A
 É pra lá que eu vou 
 A
 Е se quiser saber 
     E
 Pra onde eu vou 
     D
 Pra onde tenha Sol 
 A
 É pra lá que eu vou 
 
 

Видео