Juanes - Es por ti, аккорды

Прокрутка
Тональность
Шрифт
100
C#m                      B  
Y cada vez q me levanto 
               A  
y veo q a mi lado estas 
              B  
me siento renovado  
 
                 C#m  
y me siento aniquilado 
             B      
aniquilado si no estas 
                     A  
tu controlas toda mi verdad 
              B  
y todo lo q esta demás 
  
              A   
tus ojos me llevan lentamente al sol 
                     E  
y tu boca me habla del amor y el corazon 
               F#  
tu piel tiene el color  
              B  
de un rojo atardecer 
 
           A  
y es por ti 
e-------------9---7---5-----4-7------| 
G----------10---9---7-----5-----7-5--| 
B------------------------------------| 
D------------------------------------| 
A------------------------------------| 
E------------------------------------| 
             E    
q late mi corazon 
e-------------------7---5---4----4-7-----| 
G-----------------9---7---5----5-----7-5-| 
B----------------------------------------| 
D----------------------------------------| 
A----------------------------------------| 
E----------------------------------------| 
           A  
y es por ti 
e-------------9---7---5-----4-7------| 
G----------10---9---7-----5-----7-5--| 
B------------------------------------| 
D------------------------------------| 
A------------------------------------| 
E------------------------------------| 
                E  
q brillan mis ojos hoy 
e-------------------7---5---4----4-7-----| 
G-----------------9---7---5----5-----7-5-| 
B----------------------------------------| 
D----------------------------------------| 
A----------------------------------------| 
E----------------------------------------| 
           A  
y es por ti 
e-------------9---7---5-----4-7------| 
G----------10---9---7-----5-----7-5--| 
B------------------------------------| 
D------------------------------------| 
A------------------------------------| 
E------------------------------------| 
                E  
q vuelto a hablar de amor 
e-------------------7---5---4----4-7-----| 
G-----------------9---7---5----5-----7-5-| 
B----------------------------------------| 
D----------------------------------------| 
A----------------------------------------| 
E----------------------------------------| 
           A  
y es por ti 
e-------------9---7---5-----4-7------| 
G----------10---9---7-----5-----7-5--| 
B------------------------------------| 
D------------------------------------| 
A------------------------------------| 
E------------------------------------| 
          B  
q calma mi dolor 
 
 C#m                      B  
y cada vez q yo te busco 
          A  
y no te puedo aun hallar 
               B  
me siento un vagabundo 
 
                C#m  
perdido por el mundo 
              B  
desordenado si no estas 
                 A  
como mueves tu mi felicidad 
             B  
y todo lo q esta demas 
 
              A   
tus ojos me llevan lentamente al sol 
                     E  
y tu boca me habla del amor y el corazon 
               F#  
tu piel tiene el color  
              B  
de un rojo atardecer 
 
           A  
y es por ti 
e-------------9---7---5-----4-7------| 
G----------10---9---7-----5-----7-5--| 
B------------------------------------| 
D------------------------------------| 
A------------------------------------| 
E------------------------------------| 
             E    
q late mi corazon 
e-------------------7---5---4----4-7-----| 
G-----------------9---7---5----5-----7-5-| 
B----------------------------------------| 
D----------------------------------------| 
A----------------------------------------| 
E----------------------------------------| 
           A  
y es por ti 
e-------------9---7---5-----4-7------| 
G----------10---9---7-----5-----7-5--| 
B------------------------------------| 
D------------------------------------| 
A------------------------------------| 
E------------------------------------| 
               E  
q vuelto a hablar de amor 
e-------------------7---5---4----4-7-----| 
G-----------------9---7---5----5-----7-5-| 
B----------------------------------------| 
D----------------------------------------| 
A----------------------------------------| 
E----------------------------------------| 
           A  
y es por ti 
e-------------9---7---5-----4-7------| 
G----------10---9---7-----5-----7-5--| 
B------------------------------------| 
D------------------------------------| 
A------------------------------------| 
E------------------------------------| 
                E  
q brillan mis ojos hoy 
e-------------------7---5---4----4-7-----| 
G-----------------9---7---5----5-----7-5-| 
B----------------------------------------| 
D----------------------------------------| 
A----------------------------------------| 
E----------------------------------------| 
           A  
y es por ti 
e-------------9---7---5-----4-7------| 
G----------10---9---7-----5-----7-5--| 
B------------------------------------| 
D------------------------------------| 
A------------------------------------| 
E------------------------------------| 
          B  
q calma mi dolor 
 
SOLO  DЕ  TECLADOS (arreglo para guitarra) 
esta muy alto, si tienes guitarra electrica 
se toca asi, si no, bajale una escala y ya 
se oye igual 
 
e-19~~-----16-14-11-11-12-7~------9-11-12-11-12*11*9-| 
G----------------------------------------------------| 
B----------------------------------------------------| 
D----------------------------------------------------| 
A----------------------------------------------------| 
E----------------------------------------------------| 
 
e---11-12-9-11-7~~-----------------------------------| 
G---------------------9-7----------------------------| 
B-------------------------9-8-8--9--6-8-6~~~---------| 
D----------------------------------------------------| 
A----------------------------------------------------| 
E----------------------------------------------------| 
 
 C#m                 B  
Y cada vez q me levanto 
               A  
y veo q a mi lado estas 
              B  
me siento renovado 
 
              A   
tus ojos me llevan lentamente al sol 
                     E  
y tu boca me habla del amor y el corazon 
               F#  
tu piel tiene el color  
              B  
de un rojo atardecer 
 
          A  
y es por ti 
e-------------9---7---5-----4-7------| 
G----------10---9---7-----5-----7-5--| 
B------------------------------------| 
D------------------------------------| 
A------------------------------------| 
E------------------------------------| 
             E    
q late mi corazon 
e-------------------7---5---4----4-7-----| 
G-----------------9---7---5----5-----7-5-| 
B----------------------------------------| 
D----------------------------------------| 
A----------------------------------------| 
E----------------------------------------| 
           A  
y es por ti 
e-------------9---7---5-----4-7------| 
G----------10---9---7-----5-----7-5--| 
B------------------------------------| 
D------------------------------------| 
A------------------------------------| 
E------------------------------------| 
                E  
q vuelto a hablar de amor 
e-------------------7---5---4----4-7-----| 
G-----------------9---7---5----5-----7-5-| 
B----------------------------------------| 
D----------------------------------------| 
A----------------------------------------| 
E----------------------------------------| 
           A  
y es por ti 
e-------------9---7---5-----4-7------| 
G----------10---9---7-----5-----7-5--| 
B------------------------------------| 
D------------------------------------| 
A------------------------------------| 
E------------------------------------| 
                E  
q brillan mis ojos hoy 
e-------------------7---5---4----4-7-----| 
G-----------------9---7---5----5-----7-5-| 
B----------------------------------------| 
D----------------------------------------| 
A----------------------------------------| 
E----------------------------------------| 
           A  
y es por ti 
e-------------9---7---5-----4-7------| 
G----------10---9---7-----5-----7-5--| 
B------------------------------------| 
D------------------------------------| 
A------------------------------------| 
E------------------------------------| 
          B  
q calma mi dolor 
 
          A  
y es por ti 
e-------------9---7---5-----4-7------| 
G----------10---9---7-----5-----7-5--| 
B------------------------------------| 
D------------------------------------| 
A------------------------------------| 
E------------------------------------| 
                  E  
e-------------------7---5---4----4-7-----| 
G-----------------9---7---5----5-----7-5-| 
B----------------------------------------| 
D----------------------------------------| 
A----------------------------------------| 
E----------------------------------------| 
          A  
y es por ti 
e-------------9---7---5-----4-7------| 
G----------10---9---7-----5-----7-5--| 
B------------------------------------| 
D------------------------------------| 
A------------------------------------| 
E------------------------------------| 
                  E  
e-------------------7---5---4----4-7-----| 
G-----------------9---7---5----5-----7-5-| 
B----------------------------------------| 
D----------------------------------------| 
A----------------------------------------| 
E----------------------------------------|
 
 
Свернуть Распечатать

Видео