Juanes - Yerbatero, аккорды

Прокрутка
Тональность
Шрифт
100
Solo: 

1:-8-5h8p5----------5---8-8-8-5h8p5---------5---------------------------
2:----------8-5h8p5--5--------------8-5h8p5--5--------7b8r7---------5---
3:------------------------------------------------5-7-7b8r7-5h7p5---5---
4:----------------------------------------------7-----------------7---7-

1:---------------------8-8-8-5h8p5---------5---8-8-8-5h8p5---------5------------------------------------------
2:-7b88r7---------5----------------8-5h8p5--5--------------8-5h8p5--5--------7br~-------7br~---------7br8~~~--
3:-7b88r7-5h7p5---5------------------------------------------------------5-7-7br~---5-7-7br~-----5-7-7br8~~~--
4:--------------7---7--------------------------------------------------7----------7------------7--------------

Am7
Le traigo el remedio para ese mal de amor que le estremece
             D5
No se merece sufrir, si su pareja le dejo ohhh
Am7
Tengo toda clase de brebajes, plantas medicinales
                    D5
Las he traido desde muy lejanos bosques hasta aqui
        Am7                       Csus2
Soy yerbatero vengo a curar su mal de amores
                       D7                        Am7
Soy el que quita los dolores y habla con los animales
                      Csus2                  D7
Digame de que sufre usted que yo le tengo un brebaje
                        E5  D5   C5   B5
Que le devuelve el tono y - lo - po - ne
5:----------------------7---5----3----2-|

Am
Bieeeen bieeeen bieeeeeeeeeen
Bieeeen bieeeen bieeeeeeeeeen
Am
Si a usted senor lo deja su mujer
Untese en el alma pomadita de clavel
Am
Y para la senora que el marido ha sido infiel
               E5       D5        C5  B5
No se preocupe busquese uno usted tam-bien

Am7 D5 x2
Solo

Am7
Sufre de depresion, mal de amor, lleva varias sin dormir
                               D5
Y su dias no van bien en el trabajo....bajoooo
Am7
Anda moribundo, preocupado, cabizbajo, desenamorado
                                    D5
le tengo la solucion si le duele el corazon, no soy doctor
        Am7                       Csus2
Soy yerbatero vengo a curar su mal de amores
                       D7                        Am7
Soy el que quita los dolores y habla con los animales
                      Csus2                  D7
Digame de que sufre usted que yo le tengo un brebaje 
                        E5  D5   C5   B5  F
Que le devuelve el tono y - lo - po - ne  Bien!
5:----------------------7---5----3----2-|

Am
Bieeeen bieeen bieeeeeeeeeen
Bieeeen bieeen bieeeeeeeeeen
Am
Si a usted senor lo deja su mujer
Untese en el alma pomadita de clavel
Am
Y para la senora que el marido ha sido infiel
               E5       D5        C5  B5
No se preocupe busquese uno usted tam-bien

Bm
Bieeeen bieeen bieeeeeeeeeen
Bieeeen bieeen bieeeeeeeeeen
Am
Si a usted senor lo deja su mujer
Untese en el alma pomadita de clavel
Am
Y para la senora que el marido ha sido infiel
               E5       D5        C5  B5
No se preocupe busquese uno usted tam-bien

Am7 D5 x2
Solo       
         Am
Soy yerbatero (lelele)
         Am
Soy yerbatero (a ha)
         Am
Soy yerbatero 
 
 
Свернуть Распечатать

Аппликатуры аккордов

Аккорд Am7Аккорд D5Аккорд Csus2Аккорд D7Аккорд E5Аккорд C5Аккорд B5Аккорд AmАккорд FАккорд Bm
JuanesJuanes
автор подбора аккордов
208 1 24.04.2021

Видео