Judas Priest - Breaking the law, аккорды

Прокрутка
Тональность
Шрифт
100
Intro:
   Am                           F               G        
E---------------------------|--------------------------| 
B---------------------------|--------------------------| 
G---------------------------|--------------------------| 
D---------------------------|--------------------------| 
A--0--2--3--0-2--3--0-2--3--|--------0-------0----3--2-| 
E---------------------------|--1--3-----1-3-----3------| 
 
Verse 1: 
 Am                            C         G        Am        
There i was completely wasting, out of work and down 
 Am                            C         G       Am         
All inside it's so frustrating as i drift from town to town 
 
Pre chorus 
 F                           C       
Feel as though nobody cares if i live or die 
 F                           E          
So i might as well begin to put some action in my life 
 
Chorus:   
 Am               F       G         
Breaking the law, breaking the law 
 Am               F       G         
Breaking the law, breaking the law 
 
Verse 2: 
 Am                             C         G   Am 
So much for the golden future, i can't even start 
 Am                             C         D    E 
I've had every promise broken, there's anger in my heart        
 
Pre-Chorus: 
 F                          C     
You don't know what it's like, you don't have a clue 
 F                           E   
If you did you'd find yourselves doing the same thing too 
 
Chorus:           
 Am               F       G        
Breaking the law, breaking the law 
 Am               F       G        
Breaking the law, breaking the law 
 
B | A | B | A  
You don't know what it's like 

Dm | F C | Dm | F  G }x2
 
   Am                           F               G        
E---------------------------|--------------------------| 
B---------------------------|--------------------------| 
G---------------------------|--------------------------| 
D---------------------------|--------------------------| 
A--0--2--3--0-2--3--0-2--3--|--------0-------0----3--2-| 
E---------------------------|--1--3-----1-3-----3------| 

 Am                F       G     
Breaking the law, breaking the law 
 Am                F       G     
breaking the law, breaking the law
 
 
Свернуть Распечатать

Видео