Judas Priest - Heading Out To The Highway, аккорды

Прокрутка
Тональность
Шрифт
100
Intro (main riff):  
E |---------------------------|------------------------| 
B |---------------------------|------------------------| 
G |-----2---------5-4---4-5-7-|-----2---------5-4-5-0--| 
D |-----2---------5-4---4-5-7-|-----2---------5-4-5-0--| 
A |-0-0---0-0-0-0-----0-------|-0-0---0-0-0-0----------| 
E |---------------------------|------------------------| 
 
E |---------------------------|------------------------| 
B |---------------------------|------------------------| 
G |-----2---------5-4---4-5-7-|-----2---------5-4-5-0--| 
D |-----2---------5-4---4-5-7-|-----2---------5-4-5-0--| 
A |-0-0---0-0-0-0-----0-------|-0-0---0-0-0-0----------| 
E |---------------------------|------------------------| 
 
VERSE: 
           A                        C
Well I've said it before, and I'll say it again  
         G                    A
You get nothing for nothing, expect it when  
        F                          G                  A
You're backseat driving, and your hands ain't on the wheel  
 
      A          C
It's easy to go along with the crowd,  
      G                       A
And find later on that your say ain't allowed  
    F                 G                     A
Oh that's the way to find what you've been missing  
 
CHORUS:
 E          D           A      A
    So I'm heading out to the highway  
       D          A       E      
I got nothing to lose at all 
     D     A     A 
I'm gonna do it my way  
        D        A      E
Take a chance before I fall  
    C      G       A
А chance before I fall!  
 
E |---------------------------|-----------------------| 
B |---------------------------|-----------------------| 
G |-----2---------5-4---4-5-7-|-----2---------5-4-5-0-| 
D |-----2---------5-4---4-5-7-|-----2---------5-4-5-0-| 
A |-0-0---0-0-0-0-----0-------|-0-0---0-0-0-0---------| 
E |---------------------------|-----------------------| 
 
E |---------------------------|-----------------------| 
B |---------------------------|-----------------------| 
G |-----2---------5-4---4-5-7-|-----2---------5-4-5-0-| 
D |-----2---------5-4---4-5-7-|-----2---------5-4-5-0-| 
A |-0-0---0-0-0-0-----0-------|-0-0---0-0-0-0---------| 
E |---------------------------|-----------------------| 
 
VERSE: 
         A                 C
You can hang in a left or hang in a right  
     G                     A
The choice it is yours to do as you might  
     F            G                  A
The road is open wide to place your bidding  
 
      A                  C
Now, wherever you turn, wherever you go 
        G                A
If you get it wrong, at least you can know  
         F                  G             A
There's miles and miles to put it back together!  
 
CHORUS: 
 E           D           A      A
    And I'm heading out to the highway  
       D          A       E
I got nothing to lose at all 
     D     A     A
I'm gonna do it my way  
        D        A      E
Take a chance before I fall  
   C      G        A
А chance before I fall!  
 
E |---------------------------|-----------------------| 
B |---------------------------|-----------------------| 
G |-----2---------5-4---4-5-7-|-----2---------5-4-5-0-| 
D |-----2---------5-4---4-5-7-|-----2---------5-4-5-0-| 
A |-0-0---0-0-0-0-----0-------|-0-0---0-0-0-0---------| 
E |---------------------------|-----------------------| 
 
BRIDGE: 
B     D A B    D A B    D A  B D A (B) (A) G 
On the highway! On the highway!  
 
SOLO: 
A .... E ...... (B) (A) G ...... A .... B 
-------------|--------------------------------------| 
-------------|--------------------------------------| 
-5-4---4-5-7-|-----2---------5-4-5-0----------------| 
-5-4---4-5-7-|-----2---------5-4-5-0----------------| 
-----0-------|-0-0---0-0-0-0------------------------| 
-------------|--------------------------------------| 
 
VERSE: 
 A                 C
Making a curve or taking the strain 
 G               A 
On the decline, or out on the wain 
    F         G                     A
Oh everybody breaks down sooner or later 
 
       A                       C
We'll put it to rights, we'll square up and mend 
 G                    A
Back on your feet to take the next bend! 
 F           G                  A 
You weather every storm that's coming atcha! 
 
 E           D           A      A
    And I'm heading out to the highway  
       D          A       E
I got nothing to lose at all 
     D     A     A
I'm gonna do it my way  
        D        A      E
Take a chance before I fall  
             D           A      A
    Yes I'm heading out to the highway  
       D          A       E
I got nothing to lose at all  
         C         G        
I got nothing to lose at all!
 
 
Свернуть Распечатать

Видео