Калинов Мост - Пойдем со мной (intro), аккорды

Прокрутка
Тональность
Шрифт
100
Intro:
e---------------------------------------------
b---6-5-6/8-6-5-6---6-5-6/8-6-5-6-------------
g-7---------------7---------------7~~~~~~~~~--
d---------------------------------------------
a---------------------------------------------
e---------------------------------------------

e-------------------------------------
b---6-5-6/8-6-5-6---6-5-6/8-6-5-6-5---
g-7---------------7-------------------
d-----------------------------------7-
a-------------------------------------
e-------------------------------------

e----------------------------------10----
b---6-5-6/8-6-5-6---6-5-6/8-6-5-6--------
g-7---------------7--------------------7-
d----------------------------------------
a----------------------------------------
e----------------------------------------
 
 

Видео