Kamikazee - Chinelas, аккорды

Прокрутка
Тональность
Шрифт
100
Intro: 
E|--------------| 
B|--------------| 
G|--------------| 
D|-1-1----------| 
A|-1-1-(break)--| 
E|-1-1----------| 
 
     guitarI (fast tune) X4 (break) 
e|----------------------| 
B|----------------------| 
G|----------------------| 
D|----------------------| 
A|-------------4/5------| 
E|-0-1-2-1---0-2/3------| 
 
      guitarII X4 (break) 
e|------------------------| 
B|------------------------| 
G|------------------------| 
D|------------------------| 
A|------------------------| 
E|-0h1-0h1-1h2-1h3-1h4----| 
      
        X4 
e|---------------------------| 
B|---------------------------| 
G|---------------------------| 
D|---------------------------| 
A|---------------------------| 
E|--0-1-2-1--1h2-1h3-1h4-----| 
 
 nasan na kaya... 
e|-------------------------------------| 
B|-------------------------------------| 
G|----(l e t   r i n g)----------------| 
D|-------------------------------------| 
A|-2-----3------2------3------2-----3--| 
E|-------------------------------------| 
  
 wala sa banyo... (repeat) 
e|-------------------------------------| 
B|-------------------------------------| 
G|-----0----0-----0-----0---0-----0----| 
D|---4----4-----4-----5---5-----5------| 
A|-2----------2-----3---------3--------| 
E|-------------------------------------| 
 
 asan ang tsinelas ko!!!... 
e|---------------------------| 
B|---------------------------| 
G|---------------------------| 
D|---------------------------| 
A|---------------------------| 
E|--0-1-2-1--1h2-1h3-1h4-----| 
 
  tsinelas ko... tsinelas ko... X4 
e|----------------------------------| 
B|----------------------------------| 
G|----------------------------------| 
D|----------------------------------| 
A|----------------------------------| 
E|-0-1-2----0-1-2---0-1-2---0-1-3---| 
  pm----------------------------- 
 
 ablib:         FULL 
e|--------------------------------------------------------------------| 
B|-15b-15b-15b-15b-15b-15b-15b-------14-17p16-17p16-17p16-1716-17p16--| 
G|-----------------------------14-15----------------------------------| 
D|--------------------------------------------------------------------| 
A|--------------------------------------------------------------------| 
E|--------------------------------------------------------------------| 
                FULL  
e|-------------------------------------------------------| 
B|-17p16-17p16-17p16-17p16-17p16-19b-19b-19b-19b-19b-19b-| 
G|-------------------------------------------------------| 
D|-------------------------------------------------------| 
A|-------------------------------------------------------| 
E|-------------------------------------------------------|
 
 

Видео