Kansas - Dust In The Wind, аккорды

Прокрутка
Тональность
Шрифт
100
Main Riff:
e-0--3--1--0--1--3----------------
B-------------------1--0-----0--1-
G-------------------------3-------
D---------------------------------
A---------------------------------
E---------------------------------

----------------------------0--5--3--5--3--1--3--1--0--1--0-----0----------
-0-----0--1--0-----0--1--3-----------------------------------3-----3--1----
----2-----------2--------------------------------------------------------2-
---------------------------------------------------------------------------
---------------------------------------------------------------------------
---------------------------------------------------------------------------

--------------------------0--5--3--5--3--1--3--1--0--1--0----0---------
-----0--1--0-----0--1--3----------------------------------3-----3--1---
--2-----------2------------------------------------------------------2-
-----------------------------------------------------------------------
-----------------------------------------------------------------------
-----------------------------------------------------------------------
 
 
Свернуть Распечатать

Видео