Kanye West - Homecoming, аккорды

Прокрутка
Тональность
Шрифт
100
Standard Tuning : Capo 1st fret
Transcribed by : feargalPR

Intro

e---------------------------------|
B----8-8----8-8----8-8----8-8-----|
G----0-0----0-0----0-0----0-0-----|
D----9-9----9-9----9-9----9-9-----|
A--7------7------7------7---------|
E---------------------------------|

Main Riff (Version 1)

e---------------------------3-3----3------|
B---------------------------3-3----3------|
G----0-0----0---0-0-0-0-----0-0----0------|
D----2-2----2---0-2-0-2-----0-0----0------|
A----2-2----2---0-0-0-0-------------------|
E--0------0-----2-2-2-2---3------3--------|


e--0-0-0-0-0--------2-2-3p2-0----------------------|
B--3-1-0h1p0--------3-3-----3----------------------|
G--2-2-2-2-2--------2-2-----2------0-0------0-0----|
D------------4-5-2-----------------2-2------2-2----|
A------------3-3-3-----------------2-2------2-2----|
E------------------------------0-0------0-0--------|



Main Riff (Version 2)


e----0-0-0--0-0-0-0-0------3-3-3--------------------|
B----0-0-0--3-1-0h1p0------3-3-3--3/5--3-0-3-0------|
G----0-0-0--2-2-2-2-2------0-0-0--2/4--2-0-2-0------|
D----2-2-2-----------------0-0-0--------------------|
A----2-2-2-----------------2-2-2--------------------|
E--0---------------------3--------------------------|


e----0-0-0--2-2-3p2-0-------------------------------|
B----0-0-0--3-3-----3-------------------------------|
G----0-0-0--2-2-----2--------4-4-4-4----0-0---------|
D----2-2-2-------------2x----5-5-5-5-4--0-2---------|
A--3-------------------2x---------------------------|
E----------------------0x---------------------------|

Комментарий автора:

Key

h = hammer on
p = pull off
/ = slide up
 = slide down
x = tap mute
 
 
Свернуть Распечатать

Видео