Kanye West - Gold Digger, аккорды

Прокрутка
Тональность
Шрифт
100
00:00 - 00:15
Intro (Jamie Foxx Lyrics)
e|-----------------------|---------------------------|--------------------|-----------------|
B|-----------------------|---------------------------|--------------------|-----------------|
G|---------------------4-|---------------------------|--------------------|-----------------|
D|-----4---6---4---6-----|---4---6---4---6-----4-----|--6---4-------------|-----------------|
A|-----------------------|-----------------------6-4-|----------6---4---6-|--6---2---4---6--|
E|-----------------------|---------------------------|--------------------|-----------------|
    She take my  money  well im in n   e e d  Yeah shes a triflin friend  indeed 

e|-------------------------|----------------|-----------------------------------------|
B|-------------------------|----------------|-----------------------------------------|
G|-------------------------|----------------|-----------------------------------------|
D|-------------------------|----------------|-----------------------------------------|
A|-------2-------4---2-----|--4---2---------|-----------------------------------------|
E|---4-------4---------4-2-|----------4---2-|--2---4---4---4-4-4-4-4-4-4-4-4-4-4-4-4--|
   Oh shes a gold digger way  ov-er time that digs on me   (bass)

00:15 - End
Verses
e|-----------------------|---------------------------|
B|-----------------------|---------------------------|
G|---------------------4-|---------------------------|
D|-----4---6---4---6-----|---4---6---4---6-----4-----| (x2)
A|-----------------------|-----------------------6-4-|
E|-----------------------|---------------------------|
   She take my  money  well im in  n   e e d

|-----------------------------|
|-----------------------------|
|-----------------------------|
|-----------------------------| (x4)
|-----2---4---2---4/6---4---2-|
|-----------------------------|
   I've gotta l e a v e

Continue repeating these two sections according to the song.
 
 
Свернуть Распечатать

Видео