Kanye West - All Of The Lights, аккорды

Прокрутка
Тональность
Шрифт
100
Main riff:
(x=muted string)
e ---------------------------4-2--2-2-2-2------------------------------|
B --------------2-2--2-2-2-2-x-x--x-x-x-x---6-4--4-4-4-4---------------|
G -3--3-3-3-3---3-3--3-3-3-3-3-3--3-3-3-3---3-1--1-1-1-1---------------|
D----------------------------------------------------------------------|
A----------------------------------------------------------------------|
E----------------------------------------------------------------------|

Have another instrument play this against that:
G-------------|
D-------------|
A-1-----------|
E-----1-2-----|
 
 
Свернуть Распечатать

Видео