Kanye West - Cant Tell Me Nothing, аккорды

Прокрутка
Тональность
Шрифт
100
Tihis hord progression that plays through out the entire song:

e|---3--3--3--1--3-----3-----|
B|---4--4--3--1--4--3--4-----|
G|---5--3--3--1--3--3--5-----|   x2
D|---5--5--5--3--5--3--5-----|
A|---3--6--------6--5--3-----|  
E|---------------------------|

   Cm D# Gm Fm D# Bb Cm 

e|---3--3--3--1--3-----4--3--1--3-----3-|
B|---4--4--3--1--4--3--4--3--1--4--3--4-|
G|---5--3--3--1--3--3--5--3--1--3--3--5-| x1:After playing the above part
D|---5--5--5--3--5--3--6--5--3--5--3--5-|   twice
A|---3--6--------6--5--6--5--3--6--5--3-|  
E|---------------------4--3--1----------|

   Cm D# Gm Fm D# Bb Ab Gm Fm D# Bb Cm   
 
 
Свернуть Распечатать

Видео