Kanye West - Stronger, аккорды

Прокрутка
Тональность
Шрифт
100
tune half step down

Intro:
Eb|-----------------------------------------------|
Bb|-----------------------------------------------|
Gb|-------------------4--2-2----------------------|
Db|-2-2-2-2--5-5-5-5----------5-5--2--------------|
Ab|-----------------------------------------------|
Eb|------------------------------------3-0--------|

Main Riff:
Eb|------------------------------------------------------------------------------------------------|
Bb|-------------------------------------------------------------------10---------------------------|
Gb|------------------------------------------------------------12--------12-9----------------------|
Db|--------------9------------------------------------------------11-----------11------------------|
Ab|--7-10--7-10-----10--7-10---------10-----12--10-9-10--------------------------------7-10--------|
Eb|---------------------------10-10-----10---------------9-9-----------------------8-8------7-7-7-7|
                                                              
Eb|------------------------------------------------------------------------------------|
Bb|-------------------------------------------------------------------10---------------|
Gb|------------------------------------------------------------12--------12-9----------|
Db|--------------9------------------------------------------------11-----------11------|
Ab|--7-10--7-10-----10--7-10---------10-----12--10-9-10--------------------------------|
Eb|---------------------------10-10-----10---------------9-9-----------------------8---|

Chords played:
strum each chord just once
   Em   D    A    C   B
Eb|--7------------5-------------------|
Bb|--8-----7------5------5-----4------|
Gb|--9-----7------6------5-----4------|
Db|--9-----7------7------5-----4------|
Ab|--7-----5------7------3-----2------|
Eb|-----------------------------------|
 
 
Свернуть Распечатать

Видео