Kanye West - Good Morning, аккорды

Прокрутка
Тональность
Шрифт
100
Chord progression for intro/chorus:
e|--8---8----5-----------------------------------------------------------------------|
B|--10--8----6-----------------------------------------------------------------------|
G|--10--9----7-----------------------------------------------------------------------|
D|--10--10---7-----------------------------------------------------------------------|
A|--8---10---5-----------------------------------------------------------------------|
E|------8----------------------------------------------------------------------------|
   F  C   Dm

Chord progression for verses:
e|--5-----3-5---------------------------------------------------------------------|
B|--6-----5-6---------------------------------------------------------------------|
G|--7-----5-7---------------------------------------------------------------------|
D|--7-----5-7---------------------------------------------------------------------|
A|--5-----3-5---------------------------------------------------------------------|
E|--------------------------------------------------------------------------------|
   Dm  C Dm

Dm                                    
Wake up, Mr. West, Mr. West, Mr. Fresh
          C Dm 
Mr. by-his-self-he-so-impressed

and so on
 
 
Свернуть Распечатать

Видео