Kanye West - Power, аккорды

Прокрутка
Тональность
Шрифт
100
e|--------------------------------------------------------------------------|
B|--------------------------------------------------------------------------|
G|------------------------------------------------------12---15h17-15h17-17-|
D|---/10-12-10-8-------------8-10h12-10h12-10---8-10-12---------------------|
A|----------------10---8-10-------------------------------------------------|
E|--------------------------------------------------------------------------|

e|--------------------------------------------------------------------------|
B|--------------------------------------------------------------------------|
G|----------------------------------5-3-------3---5-3-------3---------------|
D|------3/5-3------3/5-3------3/5-3-----5-3-5---------5-3-5-----------------|
A|--1h3--------1h3--------1h3-----------------------------------------------|
E|--------------------------------------------------------------------------|
 
 
Свернуть Распечатать

Видео