Kanye West - Homecoming, аккорды

Прокрутка
Тональность
Шрифт
100
Introduction
 
 |       |       |       |   
e|------------------------------------------------|
B|------8--8--------8--8--------8--8--------8--8--|
G|------9--9--------9--9--------9--9--------9--9--|
D|------------------------------------------------|
A|7-----------7-----------7-----------7-----------|
E|------------------------------------------------|

Pattern A
 |       |       |       |   
e|------------------------------------------------|
B|------8--8-----8--------7-----8-----7-----------|
G|------9--9-----9--------7-----9-----7-----9--9--|
D|------------------------------------------9--9--|
A|7-----------7-----------9-----------9-----------|
E|------------------------------------------------|

 |       |       |       |   
e|------------------------------------------------|
B|------12-12----12----13-------12----10----8-----|
G|------12-12----12----14-------12----------------|
D|------------------------------------------------|
A|10----------10----------12----------12----------|
E|------------------------------------------------|

 |       |       |       |   
e|------------------------------------------------|
B|7-----8--------8--------7-----7--8--7-----------|
G|7--------9-----9--------7-----7--9--7--7--------|
D|------------------------------------------------|
A|------------------------5-----------5-----------|
E|8-----------8-----------------------------------|

 |       |       |       |   
e|------------------------------------------------|
B|------------------------------------------------|
G|9-----------------------------------------------|
D|------------------------------------------------|
A|7-----------------------------------------------|
E|------------------------------------------------|
              (I'm coming home again...)

Pattern B
 |       |       |       |   
e|------------------------------------------------|
B|------8--8-----8--------7-----8-----7-----------|
G|------9--9-----9--------7-----9-----7-----9--9--|
D|------------------------------------------9--9--|
A|7-----------7-----------9-----------9-----------|
E|------------------------------------------------|

 |       |       |       |   
e|------------------------------------------------|
B|------12-12----12----13-------12----10----8-----|
G|------12-12----12----14-------12----------------|
D|------------------------------------------------|
A|10----------10----------12----------12----------|
E|------------------------------------------------|

 |       |       |       |   
e|------------------------------------------------|
B|7-----8--------8--------7-----7--8--7-----------|
G|7--------9-----9--------7-----7--9--7--7--------|
D|------------------------------------------------|
A|------------------------5-----------5-----------|
E|8-----------8-----------------------------------|

 |       |       |       |   
e|------------------------------------------------|
B|------7--8-----8-----7--7-----7--8--7-----------|
G|9--------------9--------7--------9-----7--------|
D|---------------------------------------7--------|
A|7-----------7-----------9-----------9-----------|
E|------------------------------------------------|

Song Structure:

Introduction
AB
Verse One
BBBA
Chorus One
BA
Verse Two
BBAA
Chorus Two
BBA
Outro
BBA
 
 
Свернуть Распечатать

Видео