Kanye West - Paranoid, аккорды

Прокрутка
Тональность
Шрифт
100
Standard tuning
Capo 1

e|-----------------------------------------------------------------|
B|-----------------------------------------------------------------|
G|-----------------------------------------------------------------|
D|-----------------------------------------------------------------|
A|-----------------------------------------------------------------|
E|-1-1-1-1-1-1-1-1-1-1-1-1-1-1-1-1-1-1-1-1-1-1-1-1-1-1-1-1-1-1-1-1-|

Gtr. 1
e|-----------------------------------------------------------------|
B|-----------------------------------------------------------------|
G|-----------------------------------------------------------------|
D|-----------------------------------------------------------------|
A|-1-1-1-1-1-1-1-1-1-1-1-1-1-1-1-1-2-2-2-2-2-2-2-2-2-2-2-2-2-2-2-2-|
E|-----------------------------------------------------------------|

Gtr. 2
e|-------------------------------------------------------------------------|
B|-5-5-5-------------8-8-8----------6-6-6-------------10-10-10-------------|
G|-------5-5-5-------------9-9-9----------7-7-7----------------10-10-10----|
D|-------------7-7-7-------------10-------------8-8-8-------------------12-|
A|-------------------------------------------------------------------------|
E|-------------------------------------------------------------------------|
                                           Why are you so

Gtr. 1
e|-----------------------------------------------------------------|
B|-----------------------------------------------------------------|
G|-----------------------------------------------------------------|
D|-----------------------------------------------------------------|
A|-1-1-1-1-1-1-1-1-1-1-1-1-1-1-1-1-2-2-2-2-2-2-2-2-----------------|
E|-------------------------------------------------1-1-1-1-1-1-1-1-|

Gtr. 2
e|-------------------------------------------------------------------------|
B|-5-5-5-------------8-8-8----------6-6-6----------------------------------|
G|-------5-5-5-------------9-9-9----------7-7-7----------------------------|
D|-------------7-7-7-------------10-------------8-8-8----------------------|
A|-------------------------------------------------------------------------|
E|-------------------------------------------------------------------------|
  paranoid?           Don't be so paranoid         Don't be so...

Am7
Baby, don't worry 'bout it
Am7/Bb
Hey there, don't even think about it
Am
You worry 'bout the wrong things, the wrong things
Bb
You worry 'bout the wrong things, the wrong things
Am
You worry 'bout the wrong things, the wrong things
Bb            F
You worry 'bout the wrong things, the wrong things

Verse:
Am7
Tell me right now, you really wanna spend your whole life alone?
Am7/Bb
A little time out might Do you good, 
might Do us good 'fore we be done for good
Am
Cause I can make it good, I can make it hood, 
I can make you come, I can make you go
Bb
I can make it high, I can make it fly, 
make you touch the sky, hey, maybe so
Am
All the time you be up in my checking 
through my cellphone, baby, no
Bb                                     F
You wanna kill the vibe on another night? 
Here's another fight, oh, here we go, oh, here we go

Pre-chorus:
Am7
Baby, don't worry 'bout it
Am7/Bb
Lady, we'll Go out to the floor

Chorus:
Am
Anyway, they don't know you
Bb
Like I do, they'll never know you
Am
Anyway, they don't know you
Bb     F
Like I do, they'll never know you

Verse:
All of the time you wanna complain about the nights alone
So now you're here with me, show some gratitude, 
leave the attitude way back at home
Yeah you see 'em look baby, let 'em look, 
give you cold looks cause we look cold
Yeah you heard about all the word of mouth, 
don't worry about what we can't control
All the talk in the world, lost in the world 
till you finally let that thing go
You wanna check into the Heartbreak Hotel 
but sorry we're closed

Pre-chorus:
Baby, don't worry 'bout it
Lady, we'll Go out to the floor

Chorus:
Anyway, (Hey) they don't know you
Like I do, (Hey) they'll never know (Never know) you
Anyway, they don't know you (They don't know)
Like I do, they'll never know you

Am7
Baby, don't worry 'bout it
Am7/Bb
Hey there, don't even think about it
Am
You worry 'bout the wrong things, the wrong things
Bb
You worry 'bout the wrong things, the wrong things
Am
You worry 'bout the wrong things, the wrong things
Bb            F
You worry 'bout the wrong things

Am7 Am7/Bb

Chorus:
Anyway, they don't know you
Like I do, they'll never know you
Anyway, they don't know you
Like I do, they'll never know you

Outro: Am7 Am7/Bb
       Am Bb Am Bb  

Комментарий автора:

Am7/Bb - x13010
 
 
Свернуть Распечатать

Видео