Kanye West - Love Lockdown, аккорды

Прокрутка
Тональность
Шрифт
100
Tuning:Standard
PIANO PART
e|---------------------------------------------------------------------------|
B|---------------------------------------------------------------------------|
G|-------------------22------------------------------------------------------|
D|-----22---------44----44-------------11------------------------------------|
A|--44---44--X4-------------X3------22----24---X1----------------------------|
E|---------------------------------------------------------------------------|

Chords: C# F# Bm              or replace F# with 
e|-----4----9-------2-----------------------2--------------------------------|
B|-----4----9-------2-----------------------2--------------------------------|
G|-----6----11------4-----------------------2--------------------------------|
D|-----6----11------4-----------------------4--X3----------------------------|
A|-----4-X4-9--X3---2--X1----------------------------------------------------|
E|---------------------------------------------------------------------------|
 
 
Свернуть Распечатать

Видео