Kanye West - Street Lights, аккорды

Прокрутка
Тональность
Шрифт
100
Intro:
e|--------------------------------------|--------------------------------------|
B|--------------------0-----------------|--------------------0-----------------|
G|--------2-----2--------2-----2-----2--|--------2-----2--------2-----2-----2--|
D|-----0-----0-----0--------0-----0-----|-----0-----0-----0--------0-----0-----|
A|--3-----------------------------------|--3-----------------------------------|
E|--------------------------------------|--------------------------------------|

e|--------------------------------------|--------------------------------------|
B|--------------------0-----------------|--------------------0-----------------|
G|--------2-----2--------2-----2-----2--|--------2-----2--------2-----2-----2--|
D|-----0-----0-----0--------0-----0-----|-----0-----0-----0--------0-----0-----|
A|--2-----------------------------------|--2-----------------------------------|
E|--------------------------------------|--------------------------------------|

Let me know
Do I still got time to grow
Things ain't always set in stone
That be known let me know
Let me

e|--------------------------------------|--------------------------------------|
B|--------------------0-----------------|--------------------0-----------------|
G|--------2-----2--------2-----2-----2--|--------2-----2--------2-----2-----2--|
D|-----0-----0-----0--------0-----0-----|-----0-----0-----0--------0-----0-----|
A|--3-----------------------------------|--3-----------------------------------|
E|--------------------------------------|--------------------------------------|

e|--------------------------------------|--------------------------------------|
B|--------------------0-----------------|--------------------0-----------------|
G|--------2-----2--------2-----2-----2--|--------2-----2--------2-----2-----2--|
D|-----0-----0-----0--------0-----0-----|-----0-----0-----0--------0-----0-----|
A|--2-----------------------------------|--2-----------------------------------|
E|--------------------------------------|--------------------------------------|

e|--------------------------------------|--------------------------------------|
B|--------------------0-----------------|--------------------0-----------------|
G|--------2-----2--------2-----2-----2--|--------2-----2--------2-----2-----2--|
D|-----0-----0-----0--------0-----0-----|-----0-----0-----0--------0-----0-----|
A|--3-----------------------------------|--3-----------------------------------|
E|--------------------------------------|--------------------------------------|

e|--------------------------------------|--------------------------------------|
B|--------------------0-----------------|--------------------------------------|
G|--------2-----2--------2-----2-----2--|--------2-----2--------2-----2-----2--|
D|-----0-----0-----0--------0-----0-----|-----0-----0-----0--------0-----0-----|
A|--2-----------------------------------|--2-----------------0-----------------|
E|--------------------------------------|--------------------------------------|

(Seems like) All the, street lights, glowin
Happen to be just like moments, passin
In front of me so I hopped in, the cab and
I paid my fare see I know my destination
But I'm just not there (x2)

e|--------------------------------------|--------------------------------------|
B|--------------------0-----------------|--------------------0-----------------|
G|--------2-----2--------2-----2-----2--|--------2-----2--------2-----2-----2--|
D|-----0-----0-----0--------0-----0-----|-----0-----0-----0--------0-----0-----|
A|--3-----------------------------------|--3-----------------------------------|
E|--------------------------------------|--------------------------------------|

e|--------------------------------------|--------------------------------------|
B|--------------------0-----------------|--------------------0-----------------|
G|--------2-----2--------2-----2-----2--|--------2-----2--------2-----2-----2--|
D|-----0-----0-----0--------0-----0-----|-----0-----0-----0--------0-----0-----|
A|--2-----------------------------------|--2-----------------------------------|
E|--------------------------------------|--------------------------------------|

e|--------------------------------------|--------------------------------------|
B|--------------------0-----------------|--------------------0-----------------|
G|--------2-----2--------2-----2-----2--|--------2-----2--------2-----2-----2--|
D|-----0-----0-----0--------0-----0-----|-----0-----0-----0--------0-----0-----|
A|--3-----------------------------------|--3-----------------------------------|
E|--------------------------------------|--------------------------------------|

e|--------------------------------------|--------------------------------------|
B|--------------------0-----------------|--------------------0-----------------|
G|--------2-----2--------2-----2-----2--|--------2-----2--------2-----2-----2--|
D|-----0-----0-----0--------0-----0-----|-----0-----0-----0--------0-----0-----|
A|--2-----------------------------------|--2-----------------------------------|
E|--------------------------------------|--------------------------------------|

In the streets
In the, streets
I'm just not there in the streets
I'm just not there
Life's just not fair

e|--------------------------------------|--------------------------------------|
B|-----------------------0--------------|-----------------------0--------------|
G|--------------2-----------------2-----|--------------2-----------------2-----|
D|-----------0-----------------------0--|-----------0-----------------------0--|
A|--3-----------------------------------|--3-----------------------------------|
E|--------------------------------------|--------------------------------------|

e|--------------------------------------|--------------------------------------|
B|-----------------------0--------------|-----------------------0--------------|
G|--------------2-----------------2-----|--------------2-----------------2-----|
D|-----------0-----------------------0--|-----------0-----------------------0--|
A|--2-----------------------------------|--2-----------------------------------|
E|--------------------------------------|--------------------------------------|

e|--------------------------------------|--------------------------------------|
B|-----------------------0--------------|-----------------------0--------------|
G|--------------2-----------------2-----|--------------2-----------------2-----|
D|-----------0-----------------------0--|-----------0-----------------------0--|
A|--3-----------------------------------|--3-----------------------------------|
E|--------------------------------------|--------------------------------------|

e|--------------------------------------|--------------------------------------|
B|-----------------------0--------------|--------------------------------------|
G|--------------2-----------------2-----|--------------2-----------------2-----|
D|-----------0-----------------------0--|-----------0-----------------------0--|
A|--2-----------------------------------|--0--------------------0--------------|
E|--------------------------------------|--------------------------------------|

(Seems like) All the, street lights, glowin
Happen to be just like moments, passin
In front of me so I hopped in, the cab and
I paid my fare see I know my destination
But I'm just not there (x3)

e|--------------------------------------|--------------------------------------|
B|--0--0--0--0--0--0--0--0--0--0--0--0--|--0--0--0--0--0--0--0--0--0--0--0--0--|
G|--2--2--2--2--2--2--0--0--0--0--0--0--|--2--2--2--2--2--2--0--0--0--0--0--0--|
D|--0--0--0--0--0--0--0--0--0--0--0--0--|--0--0--0--0--0--0--0--0--0--0--0--0--|
A|--3--3--3--3--3--3--3--3--3--3--3--3--|--3--3--3--3--3--3--3--3--3--3--3--3--|
E|--------------------------------------|--------------------------------------|

e|--------------------------------------|--------------------------------------|
B|--0--0--0--0--0--0--0--0--0--0--0--0--|--0--0--0--0--0--0--0--0--0--0--0--0--|
G|--2--2--2--2--2--2--0--0--0--0--0--0--|--2--2--2--2--2--2--0--0--0--0--0--0--|
D|--0--0--0--0--0--0--0--0--0--0--0--0--|--0--0--0--0--0--0--0--0--0--0--0--0--|
A|--2--2--2--2--2--2--2--2--2--2--2--2--|--2--2--2--2--2--2--2--2--2--2--2--2--|
E|--------------------------------------|--------------------------------------|

e|--------------------------------------|--------------------------------------|
B|--0--0--0--0--0--0--0--0--0--0--0--0--|--0--0--0--0--0--0--0--0--0--0--0--0--|
G|--2--2--2--2--2--2--0--0--0--0--0--0--|--2--2--2--2--2--2--0--0--0--0--0--0--|
D|--0--0--0--0--0--0--0--0--0--0--0--0--|--0--0--0--0--0--0--0--0--0--0--0--0--|
A|--3--3--3--3--3--3--3--3--3--3--3--3--|--3--3--3--3--3--3--3--3--3--3--3--3--|
E|--------------------------------------|--------------------------------------|

e|--------------------------------------|--------------------------------------|
B|--0--0--0--0--0--0--0--0--0--0--0--0--|--0--0--0--0--0--0--0--0--0--0--0--0--|
G|--2--2--2--2--2--2--0--0--0--0--0--0--|--2--2--2--2--2--2--0--0--0--0--0--0--|
D|--0--0--0--0--0--0--0--0--0--0--0--0--|--0--0--0--0--0--0--0--0--0--0--0--0--|
A|--2--2--2--2--2--2--2--2--2--2--2--2--|--0--0--0--0--0--0--0--0--0--0--0--0--|
E|--------------------------------------|--------------------------------------|

In the streets
In the, streets
I'm just not there in the streets
I'm just not there
Life's just not fair, Life's just not fair...

e|--------------------------------------|--------------------------------------|
B|--------------------0-----------------|--------------------0-----------------|
G|--------2-----2--------2-----2-----2--|--------2-----2--------2-----2-----2--|
D|-----0-----0-----0--------0-----0-----|-----0-----0-----0--------0-----0-----|
A|--3-----------------------------------|--3-----------------------------------|
E|--------------------------------------|--------------------------------------|

e|--------------------------------------|--------------------------------------|
B|--------------------0-----------------|--------------------0-----------------|
G|--------2-----2--------2-----2-----2--|--------2-----2--------2-----2-----2--|
D|-----0-----0-----0--------0-----0-----|-----0-----0-----0--------0-----0-----|
A|--2-----------------------------------|--2-----------------------------------|
E|--------------------------------------|--------------------------------------|

e|--------------------------------------|--------------------------------------|
B|--------------------0-----------------|--------------------0-----------------|
G|--------2-----2--------2-----2-----2--|--------2-----2--------2-----2-----2--|
D|-----0-----0-----0--------0-----0-----|-----0-----0-----0--------0-----0-----|
A|--3-----------------------------------|--3-----------------------------------|
E|--------------------------------------|--------------------------------------|

                            (Slow down to end)
e|--------------------------------------|--------------------------------------|
B|--------------------0-----------------|--------------------------------------|
G|--------2-----2--------2-----2-----2--|--------2-----2-----------------------|
D|-----0-----0-----0--------0-----0-----|-----0-----0-----0--------------------|
A|--3-----------------------------------|--2-----------------0-----------------| (Let ring)
E|--------------------------------------|--------------------------------------|

= Throughout this part, the strumming pattern is alternating 
stressed/unstressed. Strum your fingernails.

Комментарий автора:

| / slide up
|  slide down
| h hammer-on
| p pull-off
| ~ vibrato
| + harmonic
| x Mute note
 
 
Свернуть Распечатать

Видео