Kanye West - Addiction, аккорды

Прокрутка
Тональность
Шрифт
100
Tuning:EADGBE
 
This section is played throughout the song and is also the intro. 
It's best played with delay/fade effect not too sure of it though.
e|--------------------------------------------------------------------------|
B|--15-----15------15-----15-----15-----15-----15-----15--------------------|
G|----12-----12------12-----12-----13-----13-----13-----13------------------|
D|------14-----14------14-----14-----14-----14-----14-----14----------------|
A|--------------------------------------------------------------------------|
E|--------------------------------------------------------------------------|

This section is the bass for the sample/ 
'you make me smile with my heart'
e|--------------------------------------------------------------------------|
B|--------------------------------------------------------------------------|
G|--------------------------------------------------------------------------|
D|-----------7--5-4-2-------------------------------------------------------|
A|--2--3--5-----------------------------------------------------------------|
E|--------------------------------------------------------------------------|
 
 
Свернуть Распечатать

Видео