Kanye West - Addiction, аккорды

Прокрутка
Тональность
Шрифт
100
E|-----11--------11--------11-----11---------11---------11--|
B|---------9---------9---------9------10---------10---------|
G|----------------------------------------8----------8------|
D|----------------------------------------------------------|
A|----------------------------------------------------------|
E|--9---------9---------9-----------------------------------|

E|-------------11--------11--------11-----11---------11---------11--|
B|-----------------9---------9---------9------10---------10---------|
G|------------------------------------------------8----------8------|
D|------------------------------------------------------------------|
A|------------------------------------------------------------------|
E|--4--4/9--9---------9---------9-----------------------------------|

E|--------7--------4-----------4-----------------------------------4--------|
B|-----5--------2-----------2-----2--------------7--------------------4-----|
G|--6--------4-----------2-----------2--------6-----6-----------4--------5--|
D|--------------------4--------------------7-----------7-----6--------------|
A|--------------------------------------6-----------------------------------|
E|--------------------------------------------------------4-----------------|

E|-----11--------11--------11-----11---------11---------11--|
B|---------9---------9---------9------10---------10---------|
G|----------------------------------------8----------8------|
D|----------------------------------------------------------|
A|----------------------------------------------------------|
E|--9---------9---------9-----------------------------------|

E|----------11--------11--------11-----11---------11---------11--|
B|--------------9---------9---------9------10---------10---------|
G|---------------------------------------------8----------8------|
D|---------------------------------------------------------------|
A|---------------------------------------------------------------|
E|--4--4/9---------9---------9-----------------------------------|

E|--------7--------4-----------4-----------11--------11--------11-----|
B|-----5--------2-----------2-----2------------9---------9---------9--|
G|--6--------4-----------2-----------2--------------------------------|
D|--------------------4-----------------------------------------------|
A|--------------------------------------------------------------------|
E|--------------------------------------9---------9---------9---------|

E|--11---------11---------11-----|
B|------10---------10---------9--|
G|----------8----------8------8--|
D|-------------------------------|
A|-------------------------------|
E|----------------------------9--|                                      

Комментарий автора:

(/) Slide Up
 
 
Свернуть Распечатать

Видео