Kanye West - Stronger, аккорды

Прокрутка
Тональность
Шрифт
100
Tuning: Drop D (DADGBe)
e|-------------------------------------- ----------|
B|-------------------------------------- ----------|
G|-------------------------------------- ----------|
D|-----------2----2---------------5---5- ----------|
A|-------------------------------------- ----------|
D|--2--2----------------5---5----------- ----------|
 
e|-------------------------------------- ---------|
B|------------------------------------------------|
G|---2h4--2---0h2--0------------------------------|
D|----------------------------0h2--0 -------------|
A|-------------------------------------- --0h2--0-|
D|-------------------------------------- ---------|

e|---------------------------------|
B|----------------0----------------|
G|--------0----------0------0------|
D|-----2-----2-----------2---------|
A|---------------------------------|
D|-2-------------------------------|

e|---------------------------|
B|---------------------------|
G|-------0-----2p0-----0-----|
D|---0------0--------4-------|
A|---------------------------|
D|-0-------------------------|

e|-------------------------------------- ----------|
B|------------------0------------------- ----------|
G|----------0----------0------0--------- 0---------|
D|------2------2----------2----------2-- ---2------|
A|--4------------------------------3---- ----------|
D|-------------------------------------- ----------|

e|---------------------0----0---0---0--- 0-|
B|--------------------0----0---0---0---0---|
G|----------2--------0----2---2---0---2----|
D|------1------1-----2----0---2---2---1----|
A|--------------------x----0---4---3---2---|
D|--1-----------------2----0---x---x---1---|
 
 
Свернуть Распечатать

Видео