Kanye West - No Church In The Wild, аккорды

Прокрутка
Тональность
Шрифт
100
Intro (Main Riff):
e------------------------------------------------------|
B------------------------------------------------------|
G------------------------------------------------------|
D----------------------------------------0-------------|
A------------5p2-------3-2-0----------------2----------|
E--0--h3p-0-------3p0----------0--3--0-----------------|

e------------------------------------------------------|
B------------------------------------------------------|
G------------------------------------------------------|
D----------------------------------------0-------------|
A------------5p2-------3-2-0----------------2----------|
E--0--h3p-0-------3p0----------0--3--0-----------------|
 
 
Свернуть Распечатать

Видео