Kanye West - Amazing, аккорды

Прокрутка
Тональность
Шрифт
100
Verse:
     Cm          Gm   Cm C5
||------3--3------3--3---3--3---3----------------||
||------4--4------4--4---3--3---4----------------||
||.-----5--5------5--5---3--3---5--5------------.||
||.-----5--5------5--5---5--5---5--5---------5--.||
||---3--3--3---3--3--3---5--5---3--3---3--6------||
||-----------------------3--3--------------------||

Pre-chorus:
  Ab+     Cm     Gm     Cm
---4--6--4---3---------3---------3-------------|
---4---------4--6--4---3--8------4-------------|
---5---------5---------3-----8---5-------------|
---6---------5---------5---------5---------5---|
---6---------3---------5---------3---3--6------|
---4-------------------3-----------------------|

  Ab+     Cm     Gm     Cm
---4--6--4---3---------3---------3-------------|
---4---------4--6--4---3---------4-------------|
---5---------5---------3--8--5---5-------------|
---6---------5---------5---------5---------5---|
---6---------3---------5---------3---3--6------|
---4-------------------3-----------------------|

Chorus:
||                ||
||: Ab+ Cm Gm Cm :||
||                ||
 
 
Свернуть Распечатать

Видео