Kanye West - Homecoming, аккорды

Прокрутка
Тональность
Шрифт
100
Intro (Play once)
e|-------------------------------------------7-7-7-8-7-5-3-2-3-0---0-2-2h3-2-----|
B|---------------------------------7-8-7-3-5---------------------------------3-5-|
G|-------------------------------------------------------------------------------|
D|---7-7---7-7---7-7---7-7---7-7-7-----------------------------------------------|
A|-0-----0-----0-----0-----0-----------------------------------------------------|
E|-------------------------------------------------------------------------------|

Riff 1 x4
e|-------------------7-7-7-8-7-5-3-2-3-0---0-2-2h3-2-----0-2-0-0---2-2h3-2-----|
B|---------7-8-7-3-5---------------------------------3-5-------------------3-5-|
G|-----------------------------------------------------------------------------|
D|---7-7-7---------------------------------------------------------------------|
A|-0---------------------------------------------------------------------------|
E|-----------------------------------------------------------------------------|

Riff 2 x1
e|-------------------7-7-7-8-7-5-3-2-3-0---0-2-2h3-2---------------------------|
B|---------7-8-7-3-5---------------------------------3-5-----------------------|
G|-----------------------------------------------------------------------------|
D|---7-7-7---------------------------------------------------------------------|
A|-0---------------------------------------------------------------------------|
E|-----------------------------------------------------------------------------|

Continue playing the riffs in the following order:
Riff 1 x1
Riff 2 x1
Riff 1 x2
Riff 2 x2
Riff 1 x2
Riff 2 x1
Riff 1 x2

Outro
e|-------------------7-7-7-8-7-5-3-2-3-0---0-2-2h3-2-----|
B|---------7-8-7-3-5---------------------------------3-5-|
G|-------------------------------------------------------|
D|---7-7-7-----------------------------------------------|
A|-0-----------------------------------------------------|
E|-------------------------------------------------------|
 
 
Свернуть Распечатать

Видео