Kanye West - Heard Em Say, аккорды

Прокрутка
Тональность
Шрифт
100
Fmaj7
e|----8-----10------8-----8~-------8h10-----8------------5-----------|
B|----10---(10)---(10)---(10~)----(10)----(10)-----11----6---8--8~---|
G|----9----(9)----(9)----(9~)-----(9)-----(9)-----(9)----7-----------|
D|-------------------------------------------------------------------|
A|-------------------------------------------------------------------|
E|-------------------------------------------------------------------|

   Bbmaj7    Bmin   F   F Bb F
e|----5-----------5--5----5-----5--6--5--|
B|----6---8--8~---6--5----6-----6--6--6--|
G|----7-----------6--6----5-----5--7--5--|
D|---------------------------------------|
A|---------------------------------------|
E|---------------------------------------|
   
   "nothing's ever promised tomorrow, today..."
e|----5------------5-----------5-------------5--5--5--5--5--5--5--5--|
B|----6---8--8~----6---8--8~---6---8--8~-----6--5--6--5--6--5--6--5--|
G|----7------------7-----------7-------------6--6--6--6--6--6--6--6--|
D|-------------------------------------------------------------------|
A|-------------------------------------------------------------------|
E|-------------------------------------------------------------------|

Комментарий автора:

Or if you'd like to play just the chords, here they are:

Fmaj7 : x 8 10 9 10 8
Bbmaj7 : 6 8 7 7 (6) (6)
Bmin  : 6 8 8 6 6 6
F    : x 8 10 10 10 8
B    : 6 8 8 7 6 6


| / slide up
|  slide down
| h hammer-on
| p pull-off
| ~ vibrato
| + harmonic
| x Mute note
 
 
Свернуть Распечатать

Видео