Katatonia - Teargas, аккорды

Прокрутка
Тональность
Шрифт
100
Tunning: 1/2 step down (Eb)

Intro: A(V) G(III) Dm7(V)  A(V) }x2
       F  Am  G  F  |  F  Am  G  Dm(V) 

Verse:
    A(V)                  G(III)           Dm(V)       
    Why have you put so many things into my eyes 
    A(V)
    (that I can't see clear)
    A(V)                  G(III)           Dm(V)  
    Who's paid you for telling me what I'm worth 
    A(V)
    (and run in fear)
    A(V)                  G(III)           Dm(V)         
    It has been for me a strain to see already 
    A(V)
    (what have you done)
    A(V)                  G(III)        Dm(V)       
    The rising noise, the sharpened smells, 
    A(V)
    the deadened sight
    
Chorus:
    F                                     Am
    What is it in my eyes, a piece of broken glass?
    G                                       F
    Is this the time I should be on my knees for you?
    F                                       Am
    Is this your way of telling me, another has been found?
    G                           Dm7(V)
    Now I know it's teargas in my eyes

Interlude: 
    Acoustic Guitar:
   F  Am G  F  |  F  Am  G  Dm7(V)
   A(V)  G(III)  Dm7(V)  A(V) }x2    

    Electric guitar:
    Eb|---------------------------|---------------------------|
    Bb|-12--10---12-13---12--10~--|-12--10--------------------|
    Gb|---------------------------|---------12-9--9h10p9------|
    Db|---------------------------|-----------------------12~-|
    Ab|---------------------------|---------------------------|
    Eb|---------------------------|---------------------------|
    
    Eb|---------------------------|----------------------------|
    Bb|-10h12--10--12-13--12--10~-|-12--10---------------------|
    Gb|---------------------------|---------12-9--9h10p9-------|
    Db|---------------------------|-----------------------12~--|
    Ab|---------------------------|----------------------------|
    Eb|---------------------------|----------------------------|

    Eb|----------------------|----------------------|
    Bb|-8h10-10-10--10-10-10-|-10-10h12-12-12-12-12-|
    Gb|----------------------|----------------------|
    Db|----------------------|----------------------|
    Ab|----------------------|----------------------|
    Eb|----------------------|----------------------|
    
    Eb|-10h12-12-12-12--10h12p10-----------------------------|
    Bb|--------------------------12--12/13-13--13-10--10~----|
    Gb|------------------------------------------------------|
    Db|------------------------------------------------------|
    Ab|------------------------------------------------------|
    Eb|------------------------------------------------------|

    Eb|----------------------|----------------------|
    Bb|-8-8h10-10-10~-----10-|-10-10/12-12-12-12-12-|
    Gb|----------------------|----------------------|
    Db|----------------------|----------------------|
    Ab|----------------------|----------------------|
    Eb|----------------------|----------------------|

    Eb|-10h12-12-12-12--12-10-10h12p10---------------|
    Bb|--------------------------------12--12/13-10~-|
    Gb|----------------------------------------------|
    Db|----------------------------------------------|
    Ab|----------------------------------------------|
    Eb|----------------------------------------------|

Chorus: x2
    F                                     Am
    What is it in my eyes, a piece of broken glass?
    G                                       F
    Is this the time I should be on my knees for you?
    F                                       Am
    Is this your way of telling me, another has been found?
    G                           Dm7(V)
    Now I know it's teargas in my eyes
 
 
Свернуть Распечатать

Аппликатуры аккордов

Аккорд EbАккорд A(V)Аккорд G(III)Аккорд Dm7(V)Аккорд FАккорд AmАккорд GАккорд Dm(V)
RinaOnishRinaOnish
автор подбора аккордов
2,546 1 23.07.2015

Видео