Виктор Цой - Группа Крови, аккорды

Прокрутка
Тональность
Шрифт
100
Вступление:
e-5-----2-2-2-2---4----4------------------------------------------|
b-2-----2-5-4-2---5----7------------------------------------------|
g-2-----2-2-2-2---4-x2-4-----------x2/x4--------------------------|
d-2—x4--2-2-2-2---6----6------------------------------------------|
a-4-----4-4-4—4---4----4------------------------------------------|
e-2-----2-2-2-2---------------------------------------------------|


F#m
  Тёплое место, но улицы ждут
       C#m
  Отпечатков наших ног.
F#m             E
  Звездная пыль - на сапогах.
   F#m
  Мягкое кресло, клетчатый плед,
        C#m
  Не нажатый вовремя курок.
F#m                       E
  Солнечный день - в ослепительных снах.

Припев:
                F#m
        Группа крови - на рукаве,
                        C#m
        Мой порядковый номер - на рукаве,
             Bm                       E
        Пожелай мне удачи в бою, пожелай мне:
              F#m
        Не остаться в этой траве,
              C#m
        Не остаться в этой траве.
             Bm                C#m   C#  F#m
        Пожелай мне удачи, пожелай мне удачи!

Проигрыш:
e-5-----2-2-2-2---4----4------------------------------------------|
b-2-----2-5-4-2---5----7------------------------------------------|
g-2-----2-2-2-2---4-x2-4-----------x2/x4--------------------------|
d-2—x4--2-2-2-2---6----6------------------------------------------|
a-4-----4-4-4—4---4----4------------------------------------------|
e-2-----2-2-2-2---------------------------------------------------|

   F#m
И есть чем платить, но я не хочу
       C#m
Победы любой ценой.
F#m             E
Я никому не хочу ставить ногу на грудь.
   F#m
Я хотел бы остаться с тобой,
       C#m
Просто остаться с тобой,
F#m             E
Но высокая в небе звезда зовет меня в путь.

Припев:
                F#m
        Группа крови - на рукаве,
                        C#m
        Мой порядковый номер - на рукаве,
             Bm                       E
        Пожелай мне удачи в бою, пожелай мне:
              F#m
        Не остаться в этой траве,
              C#m
        Не остаться в этой траве.
             Bm                C#m   C#  F#m
        Пожелай мне удачи, пожелай мне удачи!

Соло (Юрия Коспаряна):
e------|----------------------|-------------|---9--------9------|
b------|----------------------|-----7-------|-------10-------9--|
g------|--------------4---6---|---------6---|-------------------|
d--4---|--4---6---7-----------|-------------|-------------------| x2
a------|----------------------|-------------|-------------------|
e------|----------------------|-------------|-------------------|

Комментарий автора:

этот подбор, не для новичков!(;
бой - вниз вверх вниз(глуш.) вверх вниз вверх вниз(глуш.)вверх (можете играть по свойму)
в названии написал Виктор Цой, ведь это название популярнее, чем кино. 
 
 
Свернуть Распечатать

Видео