Виктор Цой - Спокойная ночь, аккорды

Прокрутка
Тональность
Шрифт
100
Solo (вступление)
E||--------------------------------|-----------------------------------------|
B||--------------------------------|-----------------------------------------|
G||--------------------------0--0--|-0---------------------------------------|
D||--------------------------------|---------------------------0--0—-0—-0—-0-|
A||--0--0--0--3--3--3--3--3--------|---3--3--3--3--3--2--2--2----------------|
E||--------------------------------|-----------------------------------------|
                              
----------------------------||
----------------------------||
----------------------------||
-0--0--0--------------------||
---------3----2--3--3-------||

    Am            Am7               G 
  Крыши домов дрожат под тяжестью дней,
     Dm       Am      Am7
  Небесный пастух   пасет облака,
   Am               Am7          G 
  Город стреляет в ночь дробью огней,
     Dm       Am        Am7
  Но ночь сильней,  ее власть велика.

Припев:
      F                Em
     Тем, кто ложится спать -
                  Am Am7
     Спокойного сна.
      F      C     Am  Am7
     Спокойная ночь.
      F                 Em
     Тем, кто ложится спать -
                  Am Am7
     Спокойного сна.
     F       C    Am  
     Спокойная ночь.

Проигрыш - соло партия

    Am            Am7               G 
  Я ждал это время, и вот это время пришло,
     Dm        Am        Am7
  Те, кто молчал,  перестали молчать.
   Am               Am7           G 
  Те, кому нечего ждать, садятся в седло,
     Dm       Am     Am7
  Их не догнать, уже не догнать.

Припев:
      F                Em
     Тем, кто ложится спать -
                  Am Am7
     Спокойного сна.
      F      C     Am  Am7
     Спокойная ночь.
      F                 Em
     Тем, кто ложится спать -
                  Am Am7
     Спокойного сна.
     F       C    Am  
     Спокойная ночь.

Проигрыш - соло партия

    Am            Am7               G 
  Соседи приходят, им слышится стук копыт,
     Dm      Am       Am7
  Мешает уснуть,  тревожит их сон.
   Am               Am7           G 
  Те, кому нечего ждать, отправляются в путь
     Dm      Am       Am7
  Те, кто спасен,  те, кто спасен.

Припев:
      F                Em
     Тем, кто ложится спать -
                  Am Am7
     Спокойного сна.
      F      C     Am  Am7
     Спокойная ночь.
      F                 Em
     Тем, кто ложится спать -
                  Am Am7
     Спокойного сна.
     F       C    Am  
     Спокойная ночь.
Проигрыш - соло партия   

Комментарий автора:

Бой шестерка без глушения
 
 
Свернуть Распечатать

Видео