КняZz - Буйство духов, аккорды новинка

Прокрутка
Тональность
Шрифт
100
F#m E Hm D C#m x2
4:-------------------------------------7-9-11-------
5:--9--12-11-9-7--11-9-7-5--5/7/5-5-7-9-------12-11-

4:-------------------------------------7-9-11-~13-~12
5:--9--12-11-9-7--11-9-7-5--5/7/5-5-7-9--------------

F#m G F#m D x2

F#m        A
Дом строил я для нас,
E         F#m
Надеялся на шанс
D         C#m   F#m       E
Жизнь наладить. Рвение моё
F#m        A
Не помогло, увы...
E             F#m
 К ссорам вернулись мы,
D     C#m   F#m              E
Два патрона вставил я в ружьё.

A          E
Два буйных духа!
F#m     D / C#m / Hm / A
Эх, заваруха!
Hm       C#m
Ночь настаёт,
F#m       Hm
Не повезёт
A         E        F#m
 Тем, кто здесь живёт.

F#m           G 
– Блудница! – Мерзавец!
F#m          D
– Ведьма!  – Колдун!   
F#m         G
– Стерва! – Тиран!     
F#m         D
– Грымза! – Упырь! 

F#m      A
 Сна и покоя нет
E             F#m
Новым жильцам, дуэт
D       C#m     F#                E
Злобных духов – всех источник бед.
F#m        A         E
Не прекращается дуэль,
               F#m             
Что началась при жизни. С ней
 D           C#m           F#m           E
У нас извести друг друга – неизменна цель.

A          E
Два буйных духа!
F#m     D / C#m / Hm / A
Эх, заваруха!
Hm       C#m
Ночь настаёт,
F#m       Hm
Не повезёт
A         E        F#m
 Тем, кто здесь живёт.

F#m E Hm D C#m x2
4:-------------------------------------7-9-11-------
5:--9--12-11-9-7--11-9-7-5--5/7/5-5-7-9-------12-11-

4:-------------------------------------7-9-11-~13-~12
5:--9--12-11-9-7--11-9-7-5--5/7/5-5-7-9--------------

A E F#m D / C#m / Hm / A
Hm C#m F#m Hm

A          E
Стулья летают,
F#m      D / C#m / Hm / A
Люди не знают,
Hm        C#m
Кем населён
F#m            Hm
С давних времён
A    E      F#m 
Этот старый дом.
 
 
Свернуть Распечатать

Видео