Комаров Кирилл - Крутототут, аккорды новинка

Прокрутка
Тональность
Шрифт
100
Am    F     C       G  Am    F     C     G
-----8-5-3-3-0------------8-5-3-3-0------------------|
-5-------------3s5-3---5--------------3-5-3-1-0-1-3-1|
---5---------------------5---------------------------|x2
-----------------------------------------------------|
-----------------------------------------------------|
-----------------------------------------------------|
 
 
Am 	F	 C	 G
Он ее спас от целой банды бандитов
Am 	F	 C	 G
Она подарила ему волшебную ночь
Am 	F	 C	 G
Они оба стали богаты и знамениты
Am 	F	 C	 G
Теперь даже чудо им не сможет помочь
 

Dm Dsus2 Dm  Am 
У-у-у, у!
C	G
Ой, как все круто-то…
Dm Dsus2 Dm  Am 
У-у-у, у!
C	G
Ой, как все круто-то тут…
 

Am 	F	 C	 G
И что это было, великий роман или б**ство?..
Am 	F	 C	 G
Кто это выдумал, и сколько бабок срубил?
Am 	F	 C	 G
Я не хочу знать, я хочу удивляться:
Am 	F	 C	 G
Хочу удивляться, что кто-то кого-то любил…
 

Dm Dsus2 Dm  Am 
У-у-у, у!
C	G
Ой, как все круто-то…
Dm Dsus2 Dm  Am 
У-у-у, у!
C	G
Ой, как все круто-то тут…
 
Dm Dsus2 Dm  Am 
У-у-у, у!
C	G
Ой, как все круто-то…
Dm Dsus2 Dm  Am 
У-у-у, у!
C	G
Ой, как все круто-то тут…
 

Am 	F	 C	 G
Я выключил телек, и купил билет до Бомбея.
Am 	F	 C	 G
Билет до Бомбея, до Осло и до Катманду.
Am 	F	 C	 G
Когда я приземлился, я долго не мог понять, где я — 
Am 	F	 C	 G
Вокруг были скунсы, тюлени и какаду.
 

Dm Dsus2 Dm  Am 
У-у-у, у!
C	G
Ой, как все круто-то…
Dm Dsus2 Dm  Am 
У-у-у, у!
C	G
Ой, как все круто-то тут…
 
Dm Dsus2 Dm  Am 
У-у-у, у!
C	G
Ой, как все круто-то…
Dm Dsus2 Dm  Am 
У-у-у, у!
C	G
Ой, как все круто-то тут…


Am 	F	 C	 G
Я встретил рассвет на горе Моисея.
Am 	F	 C	 G
Я вошел в воды Ганга и карму всю нафиг смыл.
Am 	F	 C	 G
Казалось, еще чуть-чуть — и я вообще просветлею…
Am 	F	 C	 G
Я вернулся домой таким же, каким и был.


Dm Dsus2 Dm  Am 
У-у-у, у!
C		G
Ой, как все круто-то…
Dm Dsus2 Dm  Am 
У-у-у, у!
C		G
Ой, как все круто-то тут…

Dm Dsus2 Dm  Am 
У-у-у, у!
C		G
Ой, как все круто-то…
Dm Dsus2 Dm  Am 
У-у-у, у!
C	G
Ой, как 
 все 
 круто-то
 тут…
F
Как все круто, как все круто…

Am    F     C       G  Am    F     C     G
-----8-5-3-3-0-------------8-5-3-3-0------------------|
-5-------------3s5-3---5---------------3-5-3-1-0-1-3-1|
---5---------------------5----------------------------|x2
------------------------------------------------------|
------------------------------------------------------|
------------------------------------------------------|

Am 	F	 C	 G
Хочешь знать правду – найми папарацци,
Am 	F	 C	 G
Хочешь знать тайну – сперва открой свой секрет.
Am 	F	 C	 G
А что до меня… Я люблю удивляться
Am 	F	 C	 G
Этому миру, которого, может быть, нет…


У-у-у, у!
C			G
Ой, как все круто-то…
Dm Dsus2 Dm  Am 
У-у-у, у!
C			G
Ой, как все круто-то тут…

У-у-у, у!
C			G
Ой, как все круто-то…
Dm Dsus2 Dm  Am 
У-у-у, у!


C		G		|
Ой, как все круто-то тут…	|x10
Am		F		|
Ой, как все круто…		|


Am F C G
Круто-круто-круто-круто…
Am F C G
Круто-то тут, круто-то тут, круто-то тут, круто-то тут,
Круто-то тут, круто-то тут, круто-то тут, круто-то тут…


Am    F     C       G  Am    F     C     G
-----8-5-3-3-0-------------8-5-3-3-0------------------|
-5-------------3s5-3---5---------------3-5-3-1-0-1-3-1|
---5---------------------5----------------------------|
------------------------------------------------------|
------------------------------------------------------|
------------------------------------------------------|

Am    F     C       G  Am 
-5---8-5-3-3-0---------5--|
---5-----------3s5-3-----5|
--------------------------|
--------------------------|
--------------------------|
--------------------------|

Комментарий автора:

Вступление лучше играть квинтаккордами, тональность оригинальная.
 
 
Свернуть Распечатать

Видео