Константин Ступин - Война, аккорды

Прокрутка
Тональность
Шрифт
100
Вступление:     
1|---------------------     
2|---------------------
3|-----------8-7-5-----
4|7-------2--------7-5-     
5|7-6-5-3-0----------5-     
6|5------------------3- x4        

Куплет 1:
A5(V)
   На небе есть только небо,
A5(V)
   А на земле есть земля.
G5
   Я встретил в тире арабов,
F5
   По ходу - скоро война.

A5(V)
   Я в лес уйду к партизанам,
A5(V)
   Чтоб пить и песни орать.
G5
   Чтоб злым и страшным с похмелья,
F5
   Ходить с утра воевать.

A5(V)
   Будем грабить обозы!
A5(V)
   Бомбить любой караван!
G5
   Топить на море подлодки,
F5
   Что создал гросс-адмирал.

A5(V)
   А на железных дорогах,
A5(V)
   Устроим полный кикоз!
G5
   Здесь не пройдут эшелоны,
F5
   Составы все под откос.

 G5
Кикоз!

Соло:
1|---------------|---------------|
2|---------------|---------------|
3|----7-7--------|--7-7----------|
4|----7-7--------|--7-7-------5--|
5|--------5-6-7--|------5-6-7---7|
6|5-5-----------5|5--------------| x2

1|------------------|-------------------|
2|------------------|-------------------|
3|----10-10---------|--10-10------------|
4|----10-10---------|--10-10--------8---|
5|----------8-9-10--|--------8-9-10---10|
6|8-8--------------8|8------------------|

1|---------------|---------------|
2|---------------|---------------|
3|----7-7--------|--7-7----------|
4|----7-7--------|--7-7-------5--|
5|--------5-6-7--|------5-6-7---7|
6|5-5-----------5|5--------------|

Проигрыш: G5 F5 G5
          C5(VIII) A5(V) C5(VIII)

Куплет 2:
A5(V)                      C5(VIII)
   На небе есть только небо,
A5(V)              C5(VIII)
   А на земле война!
G5                
   Мы будем резать вражину,
F5                       C5(VIII) 
   Стрелять и вешать врага.

A5(V)                    C5(VIII)
   Поставим всех на колени,
A5(V)                   C5(VIII)
   Дадим под зад сапогом,
G5                        C5(VIII) 
   А если главный прикажет,
F5                     C5(VIII)
   Назад Европу возьмём!

Outro = Вступление:
1|---------------------     
2|---------------------
3|-----------8-7-5-----
4|7-------2--------7-5-     
5|7-6-5-3-0----------5-     
6|5------------------3- x4        

Комментарий автора:

Строй - eb Bb Gb Db Ab Eb
 
 
Свернуть Распечатать

Видео