Константин Ступин - Лёд и ветер, аккорды

Прокрутка
Тональность
Шрифт
100
Вступление:
G|------------------------------------------------------------------------------
D|------------------------------------------------------------------------------
A|-10-----9-----7-----9-----10---10---10-----9-----10-----9-----10---9---10-----
E|----0-0---0-0---0-0---0-0----0----0----8-8---8-8----8-8---8-8----8---8----0-0-

G|------------------------------------------------------------------------------
D|------------------------------------------------------------------------------
A|-9-----7-----9-----10---12---12-------10-------9----10-----9-----10---9-----7-
E|---0-0---0-0---0-0----0----0----10-10----10-10---10----8-8---8-8----8---7-7---

G|----------------------------------
D|--------------------------------2-
A|-----6-----7-----9---9-10-----2---
E|-7-7---7-7---7-7---7------0-------

Куплет:
E5(II)
Свет не падал с небес для меня,
C5(VIII)                 A5(V)
И только древности тень, как холод, как страх.
E5(II)
Где-то там, далеко, умирает луна,
C5(VIII)            A5(V)
И мечты - как пыль, рассыпались в прах.

Припев:
C5(VIII)  C5(VIII)*  C5(VIII) C5(VIII) 
В глубине веков, где остыл огонь. И только
D5(X)  D5(X)*  D5(X)**  D5(X)*
Лёд на вершинах гор
D5(X) E5(II)
Лёд и ветер...

Проигрыш:

E5(II)   G|---------------------5--------------2----- ((E5 + соло)X2) 
         D|-------------------5---5--------0-2---2---
         A|-10-9-7-9-7-5----3-------3----0---------0-
         E|------------------------------------------

C5   C5*  C5  C5*  D5  D5*  D5**  D5*  D5  E5(II)E5*

Куплет:
E5*
Я о многом хотел спросить
C5(VIII)        A5(V)
Ни кого-нибудь, а самих богов
E5(II)
Но боги спят, оборвав нить
C5(VIII)              A5(V)
Между светом и тьмой, между мной и собой.

Припев:
C5(VIII)  C5(VIII)*  C5(VIII) C5(VIII) 
В глубине веков, где остыл огонь. И только
D5(X)  D5(X)*  D5(X)**  D5(X)*
Лёд на вершинах гор
D5(X) E5(II)
Лёд и ветер...

Проигрыш:

E5(II)   G|-----------------------5---------------2----- ((E5 + соло)X2) 
         D|---------------------5---5---------0-2---2---
         A|-10-9-7-9-7-5----3-3-------3---0-0---------0-

C5   C5*  C5  C5*  D5  D5*  D5**  D5*  D5  E5(II)E5*

Куплет:
E5*
Свет не падал с небес для меня,
C5(VIII)                 A5(V)
И только древности тень, как холод, как страх.
E5(II)
Где-то там, далеко, умирает луна,
C5(VIII)            A5(V)
И мечты - как пыль, рассыпались в прах.

Припев:
C5(VIII)  C5(VIII)*  C5(VIII) C5(VIII) 
В глубине веков, где остыл огонь. И только
D5(X)  D5(X)*  D5(X)**  D5(X)*
Лёд на вершинах гор
D5(X) E5(II)
Лёд и ветер...

Концовка:
E5(II)  A|-10-10-9-9-7-5-  C5(VIII) C5(VIII)* D5(X) D5(X)* D5(X)** E5(II) X3
        E|-0--0--0-0-0-0-     

E5(II)  A|-10-10-9-9-7-5-  C5(VIII) C5(VIII)* D5(X) D5(X)* D5(X)** E5(II)~E5*~~
        E|-0--0--0-0-0-0-                                           

Комментарий автора:

В припеве:
C5(VIII)= D|-10- C5(VIII)*= D|-10- D5(X)= D|-12- D5(X)*= D|-10- D5(X)**= D|-9--
          A|-10-            A|-9--        A|-12-         A|-10-          A|-9--
          E|-8--            E|-8--        E|-10-         E|-10-          E|-10-
В проигрыше:
C5= G|-10- C5*= G|-10- D5= G|-12- D5*= G|-10- D5**= G|-9--
    D|-10-      D|-9--     D|-12-      D|-10-       D|-9--
    A|-8--      A|-8--     A|-10-      A|-10-       A|-10-
Куплет + Проигрыш:
E5*= D|-7 (Можете называть A5* или Em/11)
     A|-7
     E|-0
 
 
Свернуть Распечатать

Видео