Корни - Я теряю корни, аккорды

Прокрутка
Тональность
Шрифт
100
       C
    Си  лы  на     ис хо де,
4---2---3---2------0---0----
5-------------------------3-
       G      
    И   кро во точ ат    ра  ны,
4---0----2---3--2---0-----0-----
5-----------------------------3-
       Am   
     Жить    е ще  не  поз дно,
4----2------3--2---0---0-----
5--------------------------3-
        F
  А умирать так  рано.
4--3--3-3-3---3---3-0-

 C
Вновь один остался
 G 
И разбежались люди
 Am 
Все кто когда-то клялся
  F 
Что долго не забудут.

   F              C       G 
 А   я  те ря ю  ко   р н и.
2-------------------------1---0----
3--------------------------------0-
4-----2--3---2-0-------------------
5-3----------------3---------------
    G                      Am           F
   И   у ле  та ю в    не- е - е     бо
2-------------3--0--- 1-0-1-0-1-0------0----
3--0---0--0---------------------------------
4----------------------------------------0?-
F                C G
К тому, кого не помню
G              Am  F
Туда, где еще не был.
F            C G
А я теряю корни.
G           Am F
И улетаю в небо
F                C G
К тому, кого не помню
G              Am  F
Туда, где еще не был.

 C
И только дождь и ветер
 G
Со мной остались рядом
 Am 
И с ночи до рассвета,
  F
Я напиваюсь ядом.
 C
Остался безответным
 G
И этот вздох последний
 Am 
Его забрал дождь с ветром
  F
И не принес спасенья.

F           C G
А я теряю корни.
G          Am F
И улетаю в небо
F                C G
К тому, кого не помню
G              Am  F
Туда, где еще не был.
F            C G
А я теряю корни.
G           Am F
И улетаю в небо
F                C G
К тому, кого не помню
G              Am  F
Туда, где еще не был.
 
 

Видео