Король и Шут - Король вечного сна, аккорды

Прокрутка
Тональность
Шрифт
100
Вступление и куплет (в куплете последняя фраза без си бемоля, 
кроме места, где поется: А я Морфей)
D:--2--2---5---7---2---------2-2----5---8-----------
A:--2--2---5---7---2---------2-2----5---8-----------
E:--0--0---3---5---0---3-2---0-0----3---6----3-2----
 
D:--2--2---5---7---2---------2-2----5---7-8-7---5--2-2--
A:--2--2---5---7---2---------2-2----5---7-8-7---5--2-2--
E:--0--0---3---5---0---3-2---0-0----3---5-6-5---3--0-0--

- Прием! Я - гром, - сквозь сон шепчет Матвей,
                  A
Связь есть - стало теплей!
 G  
«Держись!» - радио воет.
Bm
Матвей в рацию стонет,
D
От холода в сон его клонит.
A                C
Полярник в беде, замерзший в воде:
G        A          B
- Ребята, я в Черном Дворце! 

D:--2--2---5---7---2---------2-2----5---8-----------
A:--2--2---5---7---2---------2-2----5---8-----------
E:--0--0---3---5---0---3-2---0-0----3---6----3-2----
 
D:--2--2---5---7---2---------2-2----5---7-8-7---5--2-2--
A:--2--2---5---7---2---------2-2----5---7-8-7---5--2-2--
E:--0--0---3---5---0---3-2---0-0----3---5-6-5---3--0-0--

«Дом мой - покой!» -  Бог сна, вечная тьма,
                  A
Костюм шьет изо льда.
 G
Он шьет смокинги смерти,
Bm
Френч зла и сапоги.
D
Творит, но не за деньги,
A                C
Великий портной коварной рукой.
G        A          B
Шито все черной иглой. 

D:--2--2---5---7---2---------2-2----5---8-----------
A:--2--2---5---7---2---------2-2----5---8-----------
E:--0--0---3---5---0---3-2---0-0----3---6----3-2----
 
D:--2--2---5---7---2---------2-2----5---7-8-7---5--2-2--
A:--2--2---5---7---2---------2-2----5---7-8-7---5--2-2--
E:--0--0---3---5---0---3-2---0-0----3---5-6-5---3--0-0--

- Привет! - Где свет? - Ты спишь, мертвый Матвей,
                  A
А я - Морфей! Твой сон - воля моя!
 G
Мой мир - все для тебя!
Bm
Прими, это судьба!
D
Король вечного сна.
A                C
«Я жив!» - сердце кричит, -
G        A       B
«Мое тело молчит!»

D:--2--2---5---7---2---------2-2----5---8-----------
A:--2--2---5---7---2---------2-2----5---8-----------
E:--0--0---3---5---0---3-2---0-0----3---6----3-2----
 
D:--2--2---5---7---2---------2-2----5---7-8-7---5--2-2--
A:--2--2---5---7---2---------2-2----5---7-8-7---5--2-2--
E:--0--0---3---5---0---3-2---0-0----3---5-6-5---3--0-0--

Матвей в коме лежит.
                  A
Полярник в беде, замерзший в воде!
 G
Тебе смокинги смерти,
Bm
Френч зла и сапоги.
D
Творит, но не за деньги,
A                C
Великий портной коварной рукой.
G        A       B
Шито все черной иглой. 

G        A       B
Король вечного сна...
G        A       B
Король вечного сна...
G        A       B
Король вечного сна...
G        A       B
Король вечного сна...
 
 

Видео