Король и Шут - Валет и Дама, аккорды

Прокрутка
Тональность
Шрифт
100
Intro:
Riff 1: x2              D5 E5 D5 E5
e||--------------------|--------------||
B||--------------------|--------------||
G||--------------------|--------------||
D||-7-5-4-2--7-7-5-4-2-|-7-9-9--7-9-9-||
A||--------------------|-5-7-7--5-7-7-||
E||--------------------|--------------||
 |--------3x----------|

Riff 2:
   E5
e||--------------------------||
B||--------------------------||
G||--------------------------||
D||-9-9--9-9-9--9-9-9--9-9-9-||
A||-7-7--7-7-7--7-7-7--7-7-7-||
E||--------------------------||

Rhy. Fig.1:
    E5                                C5              D5
e|| ---------------------------------|--------------------------------- ||
B|| ---------------------------------|--------------------------------- ||
G||.---------------------------------|---------------------------------.||
D||.-9-9-9-9-9-9-9-9-9-9-9-9-9-9-9-9-|-5-5-5-5-5-5-5-5-7-7-7-7-7-7-7-7-.||
A|| -7-7-7-7-7-7-7-7-7-7-7-7-7-7-7-7-|-3-3-3-3-3-3-3-3-5-5-5-5-5-5-5-5- ||
E|| ---------------------------------|--------------------------------- ||
     pm---------------------------------------------------------------|
     Шел с улыбкой  здоровяк          По ночному парку 

Rhy. Fig.2:
    E5                               C5               D5
e|| --------------------------------|--------------------------------- ||
B|| --------------------------------|--------------------------------- ||
G||.--------------------------------|---------------------------------.||
D||.-9--9-9--9--9-9--9--9----9--9-9-|-5-5-5-5-5-5-5-5-7-7-7-7-7-7-7-7-.||
A|| -7--7-7--7--7-7--7--7----7--7-7-|-3-3-3-3-3-3-3-3-5-5-5-5-5-5-5-5- ||
E|| --------------------------------|--------------------------------- ||
        ^ ^     ^ ^     ^       ^    pm------------------------------|
          pm (marked notes only)
     Обратился парень к ней:        "Вот что знать хочу я"

Rhy. Fig.3:
    E5                                 C5
e|| ---------------------------------|---------------------------------|
B|| ---------------------------------|---------------------------------|
G||.---------------------------------|---------------------------------|
D||.-9-9-9-9-9-9-9-9-9-9-9-9-9-9-9-9-|-5-5-5-5-5-5-5-5-5-5-5-5-5-5-5-5-|
A|| -7-7-7-7-7-7-7-7-7-7-7-7-7-7-7-7-|-3-3-3-3-3-3-3-3-3-3-3-3-3-3-3-3-|
E|| ---------------------------------|---------------------------------|
     |------------2x---------------|   
     И упали карты на снег,           И старуха парню сказала сквозь хриплый

  E5               A5
e|-------------------------- ||
B|-------------------------- ||
G|--------------------------.||
D|-9-9-9-9-9-9-9-9--7---7---.||
A|-7-7-7-7-7-7-7-7--7---7--- ||
E|-------------------------- ||
 смех

Rhy. Fig.4:
      G                                D
e|| --3------------------------------|-2-------------------------------- ||
B|| --3------------------------------|-3-------------------------------- ||
G||.--4------------------------------|-2--------------------------------.||
D||.--5------------------------------|-0--------------------------------.||
A|| --5------------------------------|-0-------------------------------- ||
E|| --3------------------------------|---------------------------------- ||
        На тело ведьма  покосилась

Структура песни:
1 и 3-й куплет: Rhy.Fig.1 (x2)
2 и 4-й куплет: Rhy.Fig.2 (x2)
Припев: Rhy.Fig.3 (x2)
Проигрыш после припева: Riff 1 (once) и Riff 2 (once)
5-й куплет: Rhy.Fig.4 (x2)
Проигрыш: Fig.3 (x2) 

Окончание:
Rhy. Fig.4
На тело ведьма покосилась
Fill 1
И в неизвестном направленьи
Rhy. Fill 1
Скрылась!

Где: 
Fill 1:      Rhy. Fill 1:
 D5
e|------|   e|-----------------|
B|------|   B|-----------------|
G|------|   G|-----------------|
D|-7-5-2|   D|-7-7-7-7-7-7-7-7-|
A|------|   A|-5-5-5-5-5-5-5-5-|
E|------|   E|-----------------|

Комментарий автора:

pm - Palm Mute

Текст:
Шел с улыбкой здоровяк
По ночному парку,
И у тихого пруда
Повстречал гадалку.

Обратился парень к ней:
'Вот что знать хочу я:
Сколько мне осталось дней?
Как, скажи, умру я?'

Chorus:
И упали карты на снег,
И старуха парню сказала
Сквозь хриплый смех:
'Весь в крови несчастный валет,
А над ним ужасная дама
С ножом в руке!'

И воскликнул здоровяк,
Руки потирая:
'Что ты хочешь мне сказать?
Я не понимаю!'

И блеснул во мраке нож,
И раздался хохот:
'Прямо щас и прямо здесь
Будет тебе плохо!'

Chorus:
И упали карты на снег,
И старуха парню сказала
Сквозь хриплый смех:
'Весь в крови несчастный валет,
А над ним ужасная дама
С ножом в руке!'
 
 

Видео