Король и Шут - Кукольный театр, аккорды

Прокрутка
Тональность
Шрифт
100
 D       G
В кукольный театр
    A        D
Всех карлик приглашал:
 D       G
Кто вечером придет,
    A        D
Тот со смеху умрет!
 D       G
Будет вам очень, очень хорошо,
    A        D
Деньги не жалей, богатей!
              A
Вечер смеха и страстей!
 
Riff 1:
G|-11-11-9-9-11-11-9-9-11-11-9-9-12-11-

G|-11-11-9-9-11-11-9-9-11-11-9-9-7-

 D       G   A       D
Выбежал на сцену плюшевый пингвин,
 D       G   A       D
И тонким голоском он громко завопил:
 D       G   A       D
Гады все, кто здесь сейчас сидит!
 D       G   A       D
На всех я вас зачем-то просто так сердит!

   G7    F#7  Bm
В театре такое впервые,
   Bm    D   E      F#7
В театре такое сегодня впервые!
   G7    F#    Bm
Все куклы сегодня живые,
   Bm    E     F#
Все куклы сегодня, сегодня живые!

Riff 1:
G|-11-11-9-9-11-11-9-9-11-11-9-9-12-11-

G|-11-11-9-9-11-11-9-9-11-11-9-9-7-

 D       G   A       D
Волк на сцену вышел, песенку запел
 D       G   A       D
Про то, как он недавно пол-деревни съел.
 D       G   A       D
А следом вышла девушка в одних трусах...
 D       G   A       D
И на части разорвалась у всех на глазах.

   G7    F#7  Bm
В театре такое впервые,
   Bm    D   E      F#7
В театре такое сегодня впервые!
   G7    F#    Bm
Все куклы сегодня живые,
   Bm    E     F#
Все куклы сегодня, сегодня живые!

E|----------------------------------------
B|--------------------------------11~-11~-
G|--11-11-9-9-11-11-9-9-11-11-9-9--------- x2
D|----------------------------------------
A|----------------------------------------
E|----------------------------------------

G|--------9-11-12-12-12-12---------9-11-12-12-
D|--12-12--------------------12-12------------ x2
A|--------------------------------------------
E|--------------------------------------------

 D       G   A       D
А вот на сцену выбежал крутой ковбой -
 D       G   A       D
Пол-зала расстрелял, потом покончил с собой.
 D       G   A       D
Ужасный заяц громко прокричал: Пожар!
 D       G   A       D
И, бросив факел в зал, со сцены убежал.

   G7    F#7  Bm
В театре такое впервые,
   Bm    D   E      F#7
В театре такое сегодня впервые!
   G7    F#    Bm
Все куклы сегодня живые,
   Bm    E     F#
Все куклы сегодня, сегодня живые!
 
 

Видео