Король и Шут - Похороны панка, аккорды

Прокрутка
Тональность
Шрифт
100
Intro: x2
--------------------------
---------3-----------5----
------------5-----------7- x2
--------------------------
--6--7--------7--8--------

   A5     F5     G5   G5
--------------------------
---------3-----------5----
------------5-----------7- x2
--------------------------
--6--7--------7--8--------

 A5           F5      G5
Тяжелый гроб несли к могиле,
 A5           F5    G5
Крутого парня хоронили,
 A5           F5 G5
Смеялись и шутили,
 A5           F5  G5
Над тупым его лицом.

Riff A:
F5
------------------------------
------------------------------
-9--7--9--7--9--7--9--7--5--7-
------------------------------
------------------------------
------------------------------

Pre-chorus:
 A5      F5    G5
Хэй-хэй вся семья
 A5     F5   G5
Братья и друзья

Chorus:
 A5      F5   G5
Парня провожали, 
 A5      F5   G5
Плакали и ржали,
 A5      F5   G5
Водкой поливали,
 A5      F5   G5
В рожу целовали,
F5
хэй
 A5   F5 G5
Ля-ля ля-ля

Verse:
 A5      F5   G5
Виновник этого парада
 A5      F5   G5
Был не дурак, ушел как надо,
 A5      F5   G5
И баба его рада,
 A5      F5   G5
Что он ее не застрелил.

Riff A:
F5
------------------------------
------------------------------
-9--7--9--7--9--7--9--7--5--7-
------------------------------
------------------------------
------------------------------

Pre-chorus:
 A5      F5    G5
Хэй-хэй вся семья
 A5     F5   G5
Братья и друзья

Chorus:
 A5      F5   G5
Парня провожали, 
 A5      F5   G5
Плакали и ржали,
 A5      F5   G5
Водкой поливали,
 A5      F5   G5
В рожу целовали,
F5
хэй
 A5   F5 G5
Ля-ля ля-ля

Solo: x6
------------------------
------------------------
------------------------
----------5---------5---
-57-7-7---57-7-7--7-----

A5             G5
А он любил собаку

Riff B:
----------------------------
----------------------------
----------------------------
----------------------------
-7--5--3--0-----------------
Бабу, водку, драку,

 A5      F5   G5
Слезы ненавидел
 A5      F5   G5
И если б их увидел, 
 A5      F5   G5
Тут же разозлился, 
 A5      F5   G5
За наган схватился

F5         G5                                            
И разревелся он бы сам 
E5            A5
стреляя по слезам.
 
 

Видео