Король и Шут - Отражение, аккорды

Прокрутка
Тональность
Шрифт
100
Вступление: x2
    Am        G            Em           F
4)-3-2--3-2--2-3-3/5-2-0----------------6-7-9---
5)-----------------------3--7-5-3-2-3-5---------

Табы к куплету:              
  Am                     G                        Em         F   
4)-2-2-2-2--2-3-5-3-2---0-0-0-0--0-2-3-2-0-------5--3-2-----5-3-2---                       
5)------------------------------------------------------2---------3-                        

Вставка:
4)------0-2---
5)--2-3-------

Проигрыш 2:
5)--5---5-3-5-7-2---5-3-5-7-2---2-3-5-7-3---5-3-3--5-3-3--5-3--5-3-

5)--5---5-3-5-7-2---5-3-5-7-2---2-3-5-7-3-

Куплет 1:
Am
Лодка скрипит возле причала
 G
Лунная ночь - тревог начало.
  Em           F               
Мрачно стою в воду смотрю.    
Am
Нет моего в ней отраженья,
 G
Есть только горечь пораженья.
  Em           F               
Ну почему лезть в мою жизнь
             Am
Вздумалось ему-у.

Вставка:
4)------0-2---
5)--2-3-------

Проигрыш:
    Am        G            Em           F
4)-3-2--3-2--2-3-3/5-2-0----------------6-7-9---
5)-----------------------3--7-5-3-2-3-5---------

Am
В сером мешке тихие стоны
 G
Сердце мое - как трофей Горгоны.
  Em           F               
Жалости нет - во мне простыл ее след.
Am
Злоба меня лютая гложет,
 G
Разум судьбу понять не может,
  Em           F               
Против меня восстала сущность моя  + 
5)--5-3--5-3--5-3--5-3--5-3--5-3--5-3--5-3--

Припев:
       Am    Dm   F        G
  Лихорадит душу, я обиды не прощаю
  Am    Dm    F             G
  Я разрушу план твой - обещаю
	Dm     Gm    B             C
  Ты меня не знаешь, ты всего лишь отраженье
    Am     Dm    Am     Dm             G A 
  Средство есть лишь одно - сгинь на дно

Проигрыш:
    Am        G            Em           F
4)-3-2--3-2--2-3-3/5-2-0----------------6-7-9---
5)-----------------------3--7-5-3-2-3-5---------

Куплет 2:
Am
Я пережил крах, разоренье.
 G
Кто я теперь, сам как отраженье.
  Em           F               
Был я богат. Во всем лишь он виноват
Am
Тот, кто пришел из зазеркалья,
 G
Кто принес в мою жизнь страдания...
  Em           F               
Мой Бог, утешь меня, уверь, что я - это я

Припев:
       Am    Dm   F        G
  Лихорадит душу, я обиды не прощаю
  Am    Dm    F             G
  Я разрушу план твой - обещаю
	Dm     Gm    B             C
  Ты меня не знаешь, ты всего лишь отраженье
    Am     Dm    Am     Dm             G  A 
  Средство есть лишь одно - сгинь на дно 

Проигрыш 2:
5)--5---5-3-5-7-2---5-3-5-7-2---2-3-5-7-3---5-3-3--5-3-3--5-3--5-3-

5)--5---5-3-5-7-2---5-3-5-7-2---2-3-5-7-3-

5)--5-3--5-3--5-3--5-3--5-3--5-3--5-3--5-3--

Припев:
       Am    Dm   F        G
  Лихорадит душу, я обиды не прощаю
  Am    Dm    F             G
  Я разрушу план твой - обещаю
	Dm     Gm    B             C
  Ты меня не знаешь, ты всего лишь отраженье
    Am     Dm    Am     Dm             G A Am (1 удар вниз)
  Средство есть лишь одно - сгинь на дно

Комментарий автора:

Бой к куплету и припеву:V v ^ ^ v ^ (Кроме последней строки припева),
Последняя стр. Припева:V v v ^.
После слов "...сгинь на дно." играем 2 аккорда боем: V v ^ ^ v v.
 
 
Свернуть Распечатать

Видео