Король и Шут - Коктейль Молотова, аккорды

Прокрутка
Тональность
Шрифт
100
Основная тема:
E|--------------------------------------|
B|--------------------------------------|
G|--------------------------------------| x2
D|----------------0---------------------|
A|--------------2---2--1----------------|
E|--0-0-0--3-5------------2t3-3-3-3-3-3-|

E|--------------------------------------------------------|
B|--------------------------------------------------------|
G|--------------------------------------------------------|
D|--------------------------------------------------------| x4
A|-2--5--7--9--12--9--8-----------------------4-4h5-5h7-7-|
E|-0--3--5--7--10--7--6---2-3-2-3-2-3-2--5-5--------------|

E|------------------------------------------------------------------------| 
B|------------------------------------------------------------------------|
G|------------------------------------------------------------------------|
D|----------------4---6--6--7---4---------------------4-------------------| x4
A|--------0------------------------------------0------------------------3-|
E|-7--5------7------------------------7---5-------7--------4--4---5-------|

E|--------------------------------------------------------------------------| 
B|--------------------------------------------------------------------------| 
G|--------------------------------------------------------------------------| x2
D|--------------------------------------------------------------------------|
A|----------------------2--1--1--0----------------------------2--1--1--0--0-|
E|-0-0---3--0--5---3-------------------0-0---3--0--5---3--------------------|

E|---------------------------------------------------------------------|
B|---------------------------------------------------------------------|
G|---------------------------------------------------------------------|
D|---------------------2--1--1--0------------------------2--1--1--0--0-|
A|-0-0---3--0--5---3-----------------0-0---3--0--5---3-----------------|
E|---------------------------------------------------------------------|

E|---------------------------------------------------------------------| 
B|---------------------------------------------------------------------|
G|---------------------------------------------------------------------|
D|---------------------------------------------------------------------|
A|---------------------2--1--1--0------------------------2--1--1--0--0-|
E|-0-0---3---5---3-------------------0-0---3---5---3-------------------|

Басовая партия:
E|----------------------------|----------------------------------------------|
B|----------------------------|----------------------------------------------|
G|----------------------------|----------------------------------------------|
D|----------------------------|----------------------------------------------|
A|----------------------------|------------7----7------------7----7----------|
E|--0--6---0--6-|----6----6---|--0--6---0--6-------6----6------0---6---0---6-|
     
Outro:
E|------------------------|
B|------------------------|
G|---9------------------3-|
D|---9------------------3-|
A|---7------------------1-|
E|------------------------|
 
 

Видео