Король и Шут - Лесник, аккорды

Прокрутка
Тональность
Шрифт
100
Вступление: часть первая (не для каждой классики подойдет, 
т.к. она для электронки. Попробуйте с приглушенными струнами)
 Am                      F
---------------------------------------------------1)
---------------------------------------------------
---------------------------------------------------
-------------------------------55-33-------55-33---
-------55-77-------55-77---------------------------
-55-88-------55-88-------55-88-------55-88---------6)

 Dm                      G
---------------------------------------------------
---------------------------------------------------
---------------------------------------------------
-55----------55------------------------------------
----88-77-55----88-77-55----------55----------55---
-------------------------33-77-88----33-77-88------

Вступление: часть вторая (Вполне можно сыграть на классике)
 Am                 F                 
--------------------------------------
--------------------------------------
--------------------------------------
-----------------------5-3-------5-3--
-----5-7-------5-7--------------------
-5-8-----5-5-8------5-8-----5-5-8-----

 Dm                 G
--------------------------------------
--------------------------------------
--------------------------------------
-5-------5-5--------------------------
---8-7-5-----8-7-5--------5---------5-
--------------------3-7-8---3-3-7-8---

Проигрыш: Am F Dm Am 
          Am F Dm
 
Куплет 1:
   Am        
Замученный дорогой,
   F         G
Я выбился из сил,
    Am
И в доме лесника я
    F        G
Ночлега попросил,
    Am        
С улыбкой добродушной
    F           G
Старик меня впустил
    Am
И жестом дружелюбным
    F         
На ужин пригласил

Припев:
   Am        
Будь как дома, путник,
   C    Dm         Am   
Я ни в чем не откажу,
   C    Dm         Am 
Я ни в чем не откажу,
   C    Dm         G 
Я ни в чем не откажу,
   Am        
Множество историй
 C      Dm           Am       
Коль желаешь, расскажу,
 Am  C  Dm           Am
Коль желаешь, расскажу,
 Am  C  Dm           G
Коль желаешь, расскажу

Проигрыш: Am F Dm Am, 
          Am F Dm

Куплет 2:
   Am        
На улице темнело,
   F         G
Сидел я за столом,
   Am        
Лесник сидел напротив,
   F         G
Болтал о том, о сем,
   Am        
Что нет среди животных
   F         G
У старика врагов,
   Am        
Что нравится ему
   F         
Подкармливать волков

Проигрыш: Am F Dm Am, 
          Am F Dm

Припев:
   Am        
Будь как дома, путник,
   C    Dm         Am   
Я ни в чем не откажу,
   C    Dm         Am 
Я ни в чем не откажу,
   C    Dm         G 
Я ни в чем не откажу,
   Am        
Множество историй
 C      Dm           Am       
Коль желаешь, расскажу,
 Am  C  Dm           Am
Коль желаешь, расскажу,
 Am  C  Dm           G
Коль желаешь, расскажу

Куплет 3:
   Am        
И волки среди ночи
   F         G
Завыли под окном,
   Am        
Старик заулыбался
   F         G
И вдруг покинул дом,
   Am        
Но вскоре возвратился
   F         G
С ружьем наперевес:
   Am        
"Друзья хотят покушать,
   F         
Пойдем, приятель, в лес!"

Проигрыш: Am F Dm Am, 
          Am F Dm

Припев:
   Am        
Будь как дома, путник,
   C    Dm         Am   
Я ни в чем не откажу,
   C    Dm         Am 
Я ни в чем не откажу,
   C    Dm         G 
Я ни в чем не откажу,
   Am        
Множество историй
 C      Dm           Am       
Коль желаешь, расскажу,
 Am  C  Dm           Am
Коль желаешь, расскажу,
 Am  C  Dm           G
Коль желаешь, расскажу

Комментарий автора:

Эту версию я играю так:
Медиатором сверху вниз
3 коротких удара(не касаясь первых двух струн)
1 длинный (по всем струнам)
4 коротких
1 длинный
Темп - быстрее среднего
 
 
Свернуть Распечатать

Видео